PrimaNota.ru - самый крупный в мире бесплатный архив песенных текстов, аккордов, табулатур и нот


Deeds Of Flesh - Deeds Of Flesh - текст песни, таба, видео

Регистрация Запомнить меня
Войти через:  Facebook Google Twitter Vk Yandex Mail.ru

Deeds Of Flesh - Deeds Of Flesh - текст песни, таба, видео

Печатать
Просмотров: 139
Band:  Deeds Of Flesh
Album: Trading Pieces
Song:  Deeds Of Flesh



.  - palm mute           /  - slide up to
\  - slide down to       ~  - vibrato
h  - hammer on           b  - Bend
p  - pull off            Suffixes for bend
t  - tap                 f  - full bend    h - half bend
ph - pinched harmonic    q  - quarter bend t - tap bend
*  - see comment         ^  - Hold bend    r release bend
x  - Stuccatto           ~  - vibrato bend
,  - slight palm mute    () - ghost note, sustained note
"  - tremolo note        <> - Trill
nh - natural harmonic    .  - (above note) staccato

Tuning: D G C F A D


Riff A1:
                      x7
|-----------------------|--------------------|
|-----------------------|--------------------|
|-----------------------|--------------------|
|-6--------3------------|-6--------3---------|
|-4-7-8-55-1--55-4-2-4--|-4-7-8-55-1--55-4-2-|
|-4-5-6-33-1--33-2-0-2--|-4-5-6-33-1--33-2-0-|
  . . . ..    .. . .      . . . ..    .. . .


Riff B:            ____________________  ____________________
                                  1,3,5|                  2,4|
|-----------------|---------------------|---------------------|
|-----------------|---------------------|---------------------|
|-----------------|---------------------|---------------------|
|-----------------|---------------------|---------------------|
|---.---.---.---.-|-----6<7>------5<6>--|---------------------|
|-000-333-000-222-|-0-0-------0-0-------|-0-0-7<8>--0-0-6<7>--|
  ... ... ... ...   . .       . .         . .       . .
______________________
                    6,7|
|-----------------------|
|-----------------------|
|-----------------------|
|-----------------------|
|-----------------------|
|-0-0-7<8>-7-7-7-666666-|
  . .      . . . ......


Riff C1:

|-----------------|-------------------|-------------------|
|-----------------|-------------------|---------------ph--|
|-----------------|-------ph----------|-------------------|
|-----------------|-------------------|---------------7bh-|
|---2-1---3-2---4-|-3---4-5bh---2-1---|-3-2---4-3---4-----|
|-0-----1-----2---|---3-------0-----1-|-----2-----3-------|
  . . . . . . . .   . . .     . . . .   . . . . . . .


Riff C2:

|-------------------------|-------------------------|
|-------------------------|-------------------------|
|-------------------------|-------------------------|
|-------------------------|-----------------------7-|
|---2-1---3-2---4-3---4-5-|---2-1---3-2---4-3---4---|
|-0-----1-----2-----3-----|-0-----1-----2-----3-----|
  . . . . . . . . . . .     . . . . . . . . . . .


Riff D:             _________________  _________________
                                    1|                 2|
|------------------|------------------|------------------|
|------------------|------------------|------------------|
|------------------|------------------|------------------|
|------------------|-------------6666-|------------------|
|-----7777----5555-|-----77777755-----|-----77777755-----|
|-0000----0000-----|-0000-------------|-0000--------7777-|
  ................   ................   ................


Riff E:

|-----------------|-----------------|
|-----------------|-----------------|
|-----------------|-----------------|
|-----7-6-----6-5-|-----5-4-----4-3-|
|-5-6-5-4-4-5-4-3-|-3-4-3-2-2-3-2-1-|
|-3-4-----2-3-----|-1-2-----0-1-----|
  . . . . . . . .   . . . . . . . .


Riff A2:

|Gtr1
|-----------------------|
|-----------------------|
|-----------------------|
|-----------------------|
|-------------55-4-2-4--|
|-------------33-2-0-2--|
|             .. . .    |
|Gtr2                   |
|-----------------------|
|-----------------------|
|-----------------------|
|-6--------3------------|
|-4-7-8-55-1--55-4-2-4--|
|-4-5-6-33-1--33-2-0-2--|
  . . . ..    .. . .


Riff F:
                       ____________________  ____________________
|Gtr1                                     1|                    2|
|---------------------|---------------------|---------------------|
|---------------------|---------------------|---------------------|
|---------------------|---------------------|---------------------|
|---------------------|----------4-3--------|----------4-3-2------|
|------2222------3333-|------22222-1-5-3333-|------22222-1-0-5-4-2|
|-0000------0000------|-0000---------3------|-0000-----------3-2-0|
| .... .... .... .... | .... ..... . . .... | .... ..... . . . . .|
|Gtr2                 |                     |                     |
|---------------------|---------------------|---------------------|
|---------------------|---------------------|---------------------|
|---------------------|---------------------|---------------------|
|---------------------|---------------------|---------------------|
|------2222------3333-|------2222------3333-|------2222------3333-|
|-0000------0000------|-0000------0000------|-0000------0000------|
  .... .... .... ....   .... .... .... ....   .... .... .... ....


Riff G:                 _________________  _________________
                                      1,3|               2,4|
|----------------------|------------------|------------------|
|----------------------|------------------|------------------|
|----------------------|------------------|------------------|
|---------5------4---4-|---------22221111-|--------------3---|
|-2--2222-3-3333-2-2-2-|-33333333---------|-2-4-2222-2-4-1-4-|
|-0--0000-3-3333-2-0-2-|------------------|-0-2------0-2---2-|
     ....   ....   .     ................   . . .... . . . .


Riff H

|------------------|
|------------------|
|------------------|
|--------------3---|
|-2-4-2222-2-4-1-4-|
|-0-2------0-2---2-|
  . . .... . . . .


Riff C3:

|-----------------|-------------------|-------------------|
|-----------------|-------------------|---------------ph--|
|-----------------|-------ph----------|-------------------|
|-----------------|-------------------|---------------7bh-|
|---2-1---3-2---4-|-3---4-5bh---2-1---|-3-2---4-3---4-----|
|-0-----1-----2---|---3-------0-----1-|-----2-----3-------|
  . . . . . . . .   . . .     . . . .   . . .



Song Structure:

Riff A1
Riff B
Riff C1 (x2)
Riff C2
Riff C1 (x2)
Riff D
Riff E
Riff D
Riff E  (x3)
Riff A2
Riff A1 (x2)
Riff E
Riff F
Riff G
Riff H
Riff F
Riff C1 (x2)
Riff C2
Riff C1
Riff C3
Riff D
Riff E
Riff D


It should be pretty much straight forward if you listen to the
song for the rhythm, timing, etc.  Some of the riffs are quite
technical so if you spot a mistake please let me know.  As usual
comments and suggestions are welcome.

Also, I encourage you to register a rating that reflects the
quality of this tab.  The only way I know that a tab needs
improving or not is if people give it an accurate rating.
Thanks in advance.


END
Добавлено: 06.12.2013
Другие материалы по этой песне:
  • Аккорды и текст

Страница создана 30.03.2012
http://primanota.ru/deeds-of-flesh/deeds-of-flesh-chords.htm
Привет, Гость.
Предлагаем пройти революционный курс по гитаре.
Подарок от PrimaNota.Ru, забирай!