PrimaNota.ru - самый крупный в мире бесплатный архив песенных текстов, аккордов, табулатур и нот


Deeds Of Flesh - Cleansed By Fire - текст песни, таба, видео

Регистрация Запомнить меня
Войти через:  Facebook Google Twitter Vk Yandex Mail.ru

Deeds Of Flesh - Cleansed By Fire - текст песни, таба, видео

Печатать
Просмотров: 127
Уроки эстрадного вокала в Санкт-Петербурге
               --- DEEDS OF FLESH ---
                              "Cleansed By Fire"
                     From album: "Mark Of The Legion"
                     Transcribed by: ben chaffins

                            TABULATURE LEGEND:
                   " - tremolo             h - hammer on
                   ~ - vibrato             \ - slide down
                   p - pull off            / - slide down
                  tr - tremolo picking     ^ - pinch harmonics
                   = - sustained note      b - bend string
                p.m. - palm muting         t - tapping

Tuning is D [D, G, C, F, A, D]

[Part 1]
||--------------------------------------------------------------------|
||--------------------------------------------------------------------|
||--------------------------------------------------------------------|
||-3"-------------------------------3"--------4"-------3"------2"-1"--|
||-------2"-------------------5-4-3------2"------4-3-2---3-2-1--------|
||----1"----4-3-2-5-4-3-4-3-2-3-2-1----1"--1"-------------------------|
 |          . . . . . . . . .                    . . .   . . .
||--------------------------------------------------------------------|
||--------------------------------------------------------------------|
||--------------------------------------------------------------------|
||-3"-------------------------------3"--------4"-------3"------2"-1"--|
||-------2"-------------------5-4-3------2"------4-3-2---3-2-1--------|
||----1"----4-3-2-5-4-3-4-3-2-3-2-1----1"--1"-------------------------|
            . . . . . . . . .                    . . .   . . .

-------------|--------------------------------------------------------|
-------------|--------------------------------------------------------|
-------------|--------------------------------------------------------|
-------------|-------------------------------------------3"--------4"-|
-2"1"--------|-3-----2-2-2-------------------------5-4-3------2"------|
-------2"-1"-|---1-1-------1-1-1-4-3-2-5-4-3-4-3-2-3-2-1----1"--1"----|
             | . . . . . . . . . . . . . . . . . .
-------------|--------------------------------------------------------|
-------------|--------------------------------------------------------|
-------------|--------------------------------------------------------|
-------------|-6-6-6-------------------------------------7"--------8"-|
-2"1"--------|-------5-5-5-------------------------5-4-3------6"------|
-------2"-1"-|-------------4-4-4-4-3-2-5-4-3-4-3-2-3-2-1----5"--5"----|
               . . . . . . . . . . . . . . . . . .

-----------------------------------||
-----------------------------------||
-----------------------------------||
-------3"------2"-1"---------------||
-4-3-2---3-2-1---------2"1"--------||
-----------------------------2"-1"-||
 . . .   . . .                      |
-----------------------------------||
-----------------------------------||
-----------------------------------||
-------7"------6"-5"---------------||
-8-7-6---7-6-5---------6"5"--------||
-----------------------------2"-1"-||
 . . .   . . .

[Part 2 (x2)]
||--------------------------------------------------------------------------|
||o-------------------------------------------------------------------------|
||--------------------------------------------------------------------------|
||--------------------------------------------3-4-5-------------------------|
||o-------------------5-4-3-------------------1-2-3-------------------5-4-3-|
||--4-3-2-5-4-3-4-3-2-3-2-1-4-3-2-1-2-3-4-3-2-------4-3-2-5-4-3-4-3-2-3-2-1-|
    . . . . . . . . .       . . . . . . . . .       . . . . . . . . .

-----------------------------||
----------------------------o||
-----------------------------||
-----------------------------||
----------------------------o||
-4-3-2-1-2-3-4-3-2-1h2-1h2~--||
 . . . . . . . . .

[RIFF 1] [RIFF 2 (x2)]

  [out]
-|----------------|
-|----------------|
-|----------------|
-|----------------|
-|-------^--5--4--|
-|-3"-4"-3~-3--2--|
 |          .  . |
-|----------------|
-|----------------|
-|----------------|
-|----------------|
-|-------^--5--4--|
-|-3"-4"-3~-3--2--|
            .  .

[Riff 3 (x3)]
||----------------------------------------|--------------------------|
||o---------------------------------------|--------------------------|
||----------------------------------------|--------------------------|
||----------------------------------------|--------------------------|
||o-7777888877778888-5-5-5-6-6-6-^--5--4--|-555555666666555555222222-|
||--5555666655556666-3-3-3-4-4-4-3~-3--2--|--------------------------|
|                    . . . . . .    .  .  | ........................
||----------------------------------------|--------------------------|
||o---------------------------------------|--------------------------|
||----------------------------------------|--------------------------|
||----------------------------------------|--------------------------|
||o-7777888877778888-5-5-5-6-6-6-^--5--4--|--------------------------|
||--5555666655556666-3-3-3-4-4-4-3~-3--2--|-555555666666555555222222-|
                     . . . . . .    .  .    ........................

------------------------||
-----------------------o||
------------------------||
------------------------||
-555555666666-^--5--4--o||
-333333444444-3~-3--2---||
                 .  .    |
------------------------||
-----------------------o||
------------------------||
------------------------||
-555555666666-^--5--4--o||
-333333444444-3~-3--2---||
                 .  .

[Part 4 (x2)]
||---------------------------------------------------------------------------|
||o--------------------------------------------------------------------------|
||---------------------------------------------------------------------------|
||--5"..---------------------------------7"..--------------------------------|
||o------6"..-5----4-5-5-4----3-4-4-5"-6"----8"-6"-8-0-------6-0-----5-0-----|
||------------3--3-------2--2--------------------------6"...-----6-0-----5-0-|
              .  . . . . .  . . . .                . .       . . . . . . . .

------------------------||
-----------------------o||
------------------------||
------------------------||
---------4-4-4--5-5-5--o||
-3-0-3-0-5-5-5--6-6-6---||
 . . . .

[Part 5a]
||----------------------------------------[x3]-|--------------|
||---------------------------------------------|--------------|
||---------------------------------------------|--------------|
||---------------------------------------------|--------------|
||---------------------------------------------|--------------|
||-5555888877775555555555574444444444463333333-|-555577778888-|
 | ........................................... | ............ |
||----------------------------------------[x3]-|--------------|
||---------------------------------------------|--------------|
||---------------------------------------------|--------------|
||---------------------------------------------|--------------|
||-4444777766664444444444463333333333352222222-|-444466667777-|
||---------------------------------------------|--------------|
   ...........................................   ............

[RIFF 4 (x2)]

[Part 5b]
||----------------------------------------[x2]-|-------------|
||---------------------------------------------|-------------|
||---------------------------------------------|-------------|
||---------------------------------------------|-6---9---8---|
||---------------------------------------------|-4---7---6---|
||-5555888877775555555555574444444444463333333-|-4---7---6---|
 | ........................................... |
||----------------------------------------[x2]-|-------------|
||---------------------------------------------|-------------|
||---------------------------------------------|-------------|
||---------------------------------------------|-6---9---8---|
||-4444777766664444444444463333333333352222222-|-4---7---6---|
||---------------------------------------------|-4---7---6---|
   ...........................................

----------------------------[x2]-|--------------||
---------------------------------|--------------||
---------------------------------|--------------||
---------------------------------|--------------||
---------------------------------|--------------||
-5555555555574444444444463333333-|-555577778888-||
...............................  | ............  |
----------------------------[x2]-|--------------||
---------------------------------|--------------||
---------------------------------|--------------||
---------------------------------|--------------||
---------------------------------|-444466667777-||
-4444444444463333333333352222222-|--------------||
 ...............................   ............

[Riff 6a]
||-------------------------------------------------------------------------|
||-------------------------------------------------------------------------|
||-------------------------------------------------------------------------|
||----7--8--7-----7--5--7--8--7-----7--8--7-----7--5--7-----7--8--7-----7--|
||-5--7--8--7--5--7--5--7--8--7--5--7--8--7--5--7--5--7--5--7--8--7--5--7--|
||-5-----------5-----------------5-----------5-----------5-----------5-----|
 | .  .  .  .  .  .  .  .  .  .  .  .  .  .  .           .  .  .  .  .  .
||-------------------------------------------------------------------------|
||-------------------------------------------------------------------------|
||-------------------------------------------------------------------------|
||----7--8--7-----7--5--7--8--7-----7--8--7-----7--5--7-----7--8--7-----7--|
||-5--7--8--7--5--7--5--7--8--7--5--7--8--7--5--7--5--7--5--7--8--7--5--7--|
||-5-----------5-----------------5-----------5-----------5-----------5-----|
   .  .  .  .  .  .  .  .  .  .  .  .  .  .  .           .  .  .  .  .  .


-------------||
-------------||
-------------||
-------------||
-5-5-7-7-8-8-||
-------------||
 . . . . . .  |
-------------||
-------------||
-------------||
-5-5-7-7-8-8-||
-------------||
-------------||
 . . . . . .

[Riff 7]
||--------------------------------------------------------------||
||--------------------------------------------------------------||
||--------------------------------------------------------------||
||--------------------------------------------------------------||
||---7"8"7"--7"5"7"8"7"--7"8"7"--7"5"7"--7"8"7"--7"-5-5-7-7-8-8-||
||-5"------5"----------5"------5"------5"------5"---------------||
 |                                                  . . . . . .  |
||--------------------------------------------------------------||
||--------------------------------------------------------------||
||--------------------------------------------------------------||
||--------------------------------------------------------------||
||---7"8"7"--7"5"7"8"7"--7"8"7"--7"5"7"--7"8"7"--7"-5-5-7-7-8-8-||
||-5"------5"----------5"------5"------5"------5"---------------||
                                                    . . . . . .

[Riff 6b]
||-------------------------------------------------------------------------|
||-------------------------------------------------------------------------|
||----------------------------------------------------^--------------------|
||----7--8--7-----7--5--7--8--7-----7--8--7-----7-----7~----7--8--7-----7--|
||-5--7--8--7--5--7--5--7--8--7--5--7--8--7--5--7--5-----5--7--8--7--5--7--|
||-5-----------5-----------------5-----------5-----------5-----------5-----|
 | .  .  .  .  .  .  .  .  .  .  .  .  .  .  .  .     .  .  .  .  .  .  .
||-------------------------------------------------------------------------|
||-------------------------------------------------------------------------|
||----------------------------------------------------^--------------------|
||----7--8--7-----7--5--7--8--7-----7--8--7-----7-----7~----7--8--7-----7--|
||-5--7--8--7--5--7--5--7--8--7--5--7--8--7--5--7--5-----5--7--8--7--5--7--|
||-5-----------5-----------------5-----------5-----------5-----------5-----|
   .  .  .  .  .  .  .  .  .  .  .  .  .  .  .  .     .  .  .  .  .  .  .

-------------||
-------------||
-------------||
-------------||
-5-5-7-7-8-8-||
-------------||
 . . . . . .  |
-------------||
-------------||
-------------||
-5-5-7-7-8-8-||
-------------||
-------------||
 . . . . . .
                                  [Riff 8a (x2)]
---------------------------------||----------------------------------|
---------------------------------||o---------------------------------|
---------------------------------||----------------------------------|
-------2-2-2-4-4-4-4-3-3-3-3-3-3-||--------2-2-2-4-4-4-4-3-3-3-3-3-3-|
-1-1-1-2-2-2-4-4-4-4-3-3-3-3-3-3-||o-1-1-1-2-2-2-4-4-4-4-3-3-3-3-3-3-|
-1-1-1---------------------------||--1-1-1---------------------------|
 . . . . . . . . . . . . . . . . |   . . . . . . . . . . . . . . . .
---------------------------------||----------------------------------|
---------------------------------||o---------------------------------|
---------------------------------||----------------------------------|
---------------------------------||--------2-2-2-4-4-4-4-3-3-3-3-3-3-|
---------------------------------||o-1-1-1-2-2-2-4-4-4-4-3-3-3-3-3-3-|
---------------------------------||--1-1-1---------------------------|
                                     . . . . . . . . . . . . . . . .

--------------------------||------------------------|
--------------------------||------------------------|
--------------------------||------------------------|
--------------------------||-----3"....-------------|
------2"---4"....-3"....--||-2"..-------1"-0"-4"-3"-|
-1"-----------------------||------------------------|
\muted tremolo___________/|
--------------------------||------------------------|
--------------------------||------------------------|
--------------------------||------------------------|
--------------------------||-----3"....-------------|
------6"---8"....-7"....--||-2"..-------1"-0"-4"-3"-|
-5"-----------------------||------------------------|
\muted tremolo___________/


[Riff 8b (x2)]
||----------------------------------|---------------------------||
||o---------------------------------|--------------------------o||
||--------------------------------^-|---------------------------||
||--------2-2-2-4-4-4-4-3==-3==-3-3-|---------------------------||
||o-1-1-1-2-2-2-4-4-4-4-3==-3==-3---|------2"---4"....-3"....--o||
||--1-1-1---------------------------|-1"------------------------||
|   . . . . . . . . . .             |\muted tremolo___________/  |
||----------------------------------|---------------------------||
||o---------------------------------|--------------------------o||
||--------------------------------^-|---------------------------||
||--------2-2-2-4-4-4-4-3==-3==-3-3-|---------------------------||
||o-1-1-1-2-2-2-4-4-4-4-3==-3==-3---|------6"---8"....-7"....--o||
||--1-1-1---------------------------|-5"------------------------||
    . . . . . . . . . .              \muted tremolo___________/

-|------------------------||
-|------------------------||
-|------------------------||
-|-----3"....-------------||
-|-2"..-------1"-0"-4"-3"-||
-|------------------------||
 |                         |
-|------------------------||
-|------------------------||
-|------------------------||
-|-----3"....-------4"-3"-||
-|-2"..-------1"-0"-------||
-|------------------------||

[RIFF 7] [RIFF 6b] [RIFF 1] [RIFF 2 (x2)]

END OF SONG
Добавлено: 25.02.2012
Другие материалы по этой песне:

Страница создана 25.02.2012
http://primanota.ru/deeds-of-flesh/cleansed-by-fire-chords.htm
Привет, Гость.
Предлагаем пройти революционный курс по гитаре.
Подарок от PrimaNota.Ru, забирай!