PrimaNota.ru - самый крупный в мире бесплатный архив песенных текстов, аккордов, табулатур и нот


Deeds Of Flesh - Banished - текст песни, таба, видео

Регистрация Запомнить меня
Войти через:  Facebook Google Twitter Vk Yandex Mail.ru

Deeds Of Flesh - Banished - текст песни, таба, видео

Печатать
Просмотров: 146
                     --- DEEDS OF FLESH ---
                                  "Banished"
                     From album: "Reduced To Ashes"
                     Transcribed by ben chaffins

                            TABULATURE LEGEND:
                   " - tremolo             h - hammer on
                   ~ - vibrato             \ - slide down
                   p - pull off            / - slide down
                  tr - tremolo picking     ^ - pinch harmonics
                   = - sustained note      b - bend string
                p.m. - palm muting         t - tapping

Tuning is D [D, G, C, F, A, D]

[Riff 1a]
||--------------------------------------------------------------|-
||--------------------------------------------------------------|-
||--------------------------------------------------------------|-
||--------------------------------------------------------------|-
||---------2222223333330000002222-------5555-------444455777777-|-
||-000-000------------------------0-0-0------0-0-0--------------|-
   ... ... ...................... . . . .... . . . ............

-|------------------------------------------------|-
-|------------------------------------------------|-
-|------------------------------------------------|-
-|------------------------------------------------|-
-|-2222-------222222444444000000---------------3--|-
-|------0-0-0-------------------3333333333-3-2-1--|-
   .... . . . ............................ . .

-|---------------------------------------------------------------|-
-|---------------------------------------------------------------|-
-|---------------------------------------------------------------|-
-|---------------------------------------------------------------|-
-|-2222-------222222333333000000---------------------------------|-
-|------0-0-0-------------------000-0-0-0-333-0-0-0-222233555555-|-
   .... . . . ..................... . . . ... . . . ............

-|------------------------------------------------------||
-|------------------------------------------------------||
-|------------------------------------------------------||
-|-------------------------------8--7--------5-7--------||
-|-2222-------222222444444000000-6--5--5--4--3-5-777777-||
-|------0-0-0--------------------------3--2-------------||
   .... . . . ..................

[Riff 2a (x2)]
||-------------------------------------------------------------------||
||-------------------------------------------------------------------||
||-------------------------------------------------------------------||
||-------------------------------------------------------------------||
||-666666-----6---777777444444666666-------66666---33333322222333333-||
||--------3-3---3--------------------3-3-3-------3-------------------||
 | ...... . . . . .................. . . . ....... .................  |
||-------------------------------------------------------------------||
||-------------------------------------------------------------------||
||-------------------------------------------------------------------||
||-------------------------------------------------------------------||
||-666666-----6---777777444444666666-------66666---33333322222333333-||
||--------3-3---3--------------------3-3-3-------3-------------------||
   ...... . . . . .................. . . . ....... .................

[Riff 2b (x2)]
||-------------------------------------------------------------------||
||-------------------------------------------------------------------||
||-------------------------------------------------------------------||
||-------------------------------------------------------------------||
||-666666-----6---777777444444666666-------66666---33333322222333333-||
||--------3-3---3--------------------3-3-3-------3-------------------||
 | ...... . . . . .................. . . . ....... .................  |
||-------------------------------------------------------------------||
||-------------------------------------------------------------------||
||-------------------------------------------------------------------||
||-555555---------------------555555---------------------------------||
||------------6---777777444444-------------66666---33333322222333333-||
||--------3-3---3--------------------3-3-3-------3-------------------||
   ...... . . . . .................. . . . ....... .................


[Riff 3 (x2)]
||----------------------------------|--------------------------------------|-
||o---------------------------------|--------------------------------------|-
||----------------------------------|--------------------------------------|-
||----------------------------------|--------------------6--6-----5-5------|-
||o-6-6-----5-5-----6-6-----7-7-----|-6-6------5--5-----------3-3-----2-2--|-
||------3-3-----2-2-----3-3-----4-4-|-----3-3-------2-2--------------------|-
|   . . . . . . . . . . . . . . . . | . . . .  .  . . .  .  . . . . . . .  |
||----------------------------------|--------------------------------------|-
||o---------------------------------|--------------------------------------|-
||----------------------------------|--------------------------------------|-
||----------------------------------|-------------------10-10-----9-9------|-
||o-6-6-----5-5-----6-6-----7-7-----|-9-9-----10-10-----------7-7-----6-6--|-
||------3-3-----2-2-----3-3-----4-4-|-----6-6-------7-7--------------------|-
    . . . . . . . . . . . . . . . .   . . . . .  .  . . .  .  . . . . . .

-|---------------------------------|------------------------------------------||
-|---------------------------------|-----------------------------------------o||
-|---------------------------------|------------------------------------------||
-|---------------------------------|--7--7-4-4--7--7------7--7-4-4--6--6-3-3--||
-|-6-6-----5-5-----6-6-----7-7-----|-----------------4-4---------------------o||
-|-----3-3-----2-2-----3-3-----4-4-|------------------------------------------||
 | . . . . . . . . . . . . . . . . |  .  . . .  .  . . .  .  . . .  .  . . .   |
-|---------------------------------|------------------------------------------||
-|---------------------------------|-----------------------------------------o||
-|---------------------------------|------------------------------------------||
-|---------------------------------|-----------11-11-----11-11-8-8-10-10-7-7--||
-|-6-6-----5-5-----6-6-----7-7-----|-12-12-----------8-8---------------------o||
-|-----3-3-----2-2-----3-3-----4-4-|-------9-9--------------------------------||
   . . . . . . . . . . . . . . . .   .  .  . . .  .  . . .  .  . . .  .  . .

[RIFF 2a (x2)] [RIFF 2b (x2)]

[Riff 4a]
||---------------------------------|---------------------------------|-
||---------------------------------|---------------------------------|-
||-5-2---------------------5-2-5-2-|-5-2---------------------5-2-5-2-|-
||-----4-1-4-1---------4-1---------|-----4-1-4-1---------4-1---------|-
||-------------3-0-3-0-------------|-------------3-0-3-0-------------|-
||---------------------------------|---------------------------------|-
 | . . . . . . . . . . . . . . . . | . . . . . . . . . . . . . . . . |
||---------------------------------|---------------------------------|-
||---------------------------------|---------------------------------|-
||-------------------------5-2-5-2-|-5-2---------------------5-2-5-2-|-
||---------------------------------|-----4-1-4-1---------4-1---------|-
||---------------------------------|-------------3-0-3-0-------------|-
||---------------------------------|---------------------------------|-
                           . . . .   . . . . . . . . . . . . . . . .

-|---------------------------------|---------------------------------||
-|---------------------------------|---------------------------------||
-|---------------------------------|---------------------------------||
-|---------------------------------|---------------------------------||
-|-3-3-3-3-6-6-6-6-3-3-3-3-6-6-6-6-|-4-4-4-4-7-7-7-7-4-4-4-4-7-7-7-7-||
-|---------------------------------|---------------------------------||
 | . . . . . . . . . . . . . . . . | . . . . . . . . . . . . . . . .  |
-|---------------------------------|---------------------------------||
-|---------------------------------|---------------------------------||
-|---------------------------------|---------------------------------||
-|---------------------------------|---------------------------------||
-|-3-3-3-3-6-6-6-6-3-3-3-3-6-6-6-6-|-4-4-4-4-7-7-7-7-4-4-4-4-7-7-7-7-||
-|---------------------------------|---------------------------------||
   . . . . . . . . . . . . . . . .   . . . . . . . . . . . . . . . .

[Riff 4b]
||---------------------------------|---------------------------------|-
||---------------------------------|---------------------------------|-
||-5-2---------------------5-2-5-2-|-5-2---------------------5-2-5-2-|-
||-----4-1-4-1---------4-1---------|-----4-1-4-1---------4-1---------|-
||-------------3-0-3-0-------------|-------------3-0-3-0-------------|-
||---------------------------------|---------------------------------|-
|  . . . . . . . . . . . . . . . . | . . . . . . . . . . . . . . . . |
||---------------------------------|---------------------------------|-
||---------------------------------|---------------------------------|-
||-8-5---------------------8-5-8-5-|-8-5---------------------8-5-8-5-|-
||-----7-4-7-4---------7-4---------|-----7-4-7-4---------7-4---------|-
||-------------6-3-6-3-------------|-------------6-3-6-3-------------|-
||---------------------------------|---------------------------------|-
   . . . . . . . . . . . . . . . .   . . . . . . . . . . . . . . . .

-|---------------------------------|---------------------------------||
-|---------------------------------|---------------------------------||
-|---------------------------------|---------------------------------||
-|---------------------------------|---------------------------------||
-|-3-3-3-3-6-6-6-6-3-3-3-3-6-6-6-6-|-4-4-4-4-7-7-7-7-4-4-4-4-7-7-7-7-||
-|---------------------------------|---------------------------------||
 | . . . . . . . . . . . . . . . . | . . . . . . . . . . . . . . . .  |
-|---------------------------------|---------------------------------||
-|---------------------------------|---------------------------------||
-|---------------------------------|---------------------------------||
-|---------------------------------|---------------------------------||
-|-3-3-3-3-6-6-6-6-3-3-3-3-6-6-6-6-|-4-4-4-4-7-7-7-7-4-4-4-4-7-7-7-7-||
-|---------------------------------|---------------------------------||
   . . . . . . . . . . . . . . . .   . . . . . . . . . . . . . . . .

[Riff 5 (x2)]
||----------------------------|----------------------------------||
||----------------------------|----------------------------------||
||----------------------------|----------------------------------||
||----------------------------|----------------------------------||
||-555-4--5--666-5--555-4--4--|-555-4--5--666-5--555-4--5--4--5--||
||-----2--3------3------2--2--|-----2--3------3------2--2--1--2--||
   ... .  .  ... .  ... .  .    ... .  .  ... .  ... .

[outro]
|-----------------|-----------------|
|-----------------|-----------------|
|-----------------|-----------------|
|-----------------|-----------------|
|-----------------|-----------------|
|-3-3-6-3-3-3-6-3-|-4-4-7-4-4-4-7-4-|
| . . . . . . . . | . . . . . . . . |
|-----------------|-----------------|
|-----------------|-----------------|
|-----------------|-----------------|
|-----------------|-----------------|
|-3-3-6-3-3-3-6-3-|-4-4-7-4-4-4-7-4-|
|-----------------|-----------------|
  . . . . . . . .   . . . . . . . .


[RIFF 5 (x2)] [OUTRO]

[Riff 4a*]
||---------------------------------|---------------------------------|-
||---------------------------------|---------------------------------|-
||-5-2---------------------5-2-5-2-|-5-2---------------------5-2-5-2-|-
||-----4-1-4-1---------4-1---------|-----4-1-4-1---------4-1---------|-
||-------------3-0-3-0-------------|-------------3-0-3-0-------------|-
||---------------------------------|---------------------------------|-
 | . . . . . . . . . . . . . . . . | . . . . . . . . . . . . . . . . |
||---------------------------------|---------------------------------|-
||---------------------------------|---------------------------------|-
||-5-2---------------------5-2-5-2-|-5-2---------------------5-2-5-2-|-
||-----4-1-4-1---------4-1---------|-----4-1-4-1---------4-1---------|-
||-------------3-0-3-0-------------|-------------3-0-3-0-------------|-
||---------------------------------|---------------------------------|-
   . . . . . . . . . . . . . . . .   . . . . . . . . . . . . . . . .

-|---------------------------------|---------------------------------||
-|---------------------------------|---------------------------------||
-|---------------------------------|---------------------------------||
-|---------------------------------|---------------------------------||
-|-3-3-3-3-6-6-6-6-3-3-3-3-6-6-6-6-|-4-4-4-4-7-7-7-7-4-4-4-4-7-7-7-7-||
-|---------------------------------|---------------------------------||
 | . . . . . . . . . . . . . . . . | . . . . . . . . . . . . . . . .  |
-|---------------------------------|---------------------------------||
-|---------------------------------|---------------------------------||
-|---------------------------------|---------------------------------||
-|---------------------------------|---------------------------------||
-|-6"------9"------6"------9"------|-7"------10"-----7"------10"-----||
-|---------------------------------|---------------------------------||

[Riff 4b*]
||---------------------------------|---------------------------------|-
||---------------------------------|---------------------------------|-
||-5-2---------------------5-2-5-2-|-5-2---------------------5-2-5-2-|-
||-----4-1-4-1---------4-1---------|-----4-1-4-1---------4-1---------|-
||-------------3-0-3-0-------------|-------------3-0-3-0-------------|-
||---------------------------------|---------------------------------|-
|  . . . . . . . . . . . . . . . . | . . . . . . . . . . . . . . . . |
||---------------------------------|---------------------------------|-
||---------------------------------|---------------------------------|-
||-8-5---------------------8-5-8-5-|-8-5---------------------8-5-8-5-|-
||-----7-4-7-4---------7-4---------|-----7-4-7-4---------7-4---------|-
||-------------6-3-6-3-------------|-------------6-3-6-3-------------|-
||---------------------------------|---------------------------------|-
   . . . . . . . . . . . . . . . .   . . . . . . . . . . . . . . . .

-|---------------------------------|---------------------------------||
-|---------------------------------|---------------------------------||
-|---------------------------------|---------------------------------||
-|---------------------------------|---------------------------------||
-|-3-3-3-3-6-6-6-6-3-3-3-3-6-6-6-6-|-4-4-4-4-7-7-7-7-4-4-4-4-7-7-7-7-||
-|---------------------------------|---------------------------------||
 | . . . . . . . . . . . . . . . . | . . . . . . . . . . . . . . . .  |
-|---------------------------------|---------------------------------||
-|---------------------------------|---------------------------------||
-|---------------------------------|---------------------------------||
-|---------------------------------|---------------------------------||
-|-6"------9"------6"------9"------|-7"------10"-----7"------10"-----||
-|---------------------------------|---------------------------------||

[RIFF 2a (x2)] [RIFF 2b (x2)]

[Riff 6 (x2)]
||----------------------|---------------------|-----------------------|-
||----------------------|---------------------|-----------------------|-
||----------------------|---------------------|-----------------------|-
||----------------------|---------------------|-----------------------|-
||-5-5-5-5-5-5-5--6--5--|-4--4-4-4-4-4--5--4--|-5-5-5-5-5-5-5--6--5---|-
||-2-2-2-2-2-2-2--3--2--|-1--1-1-1-1-1--2--1--|-2-2-2-2-2-2-2--3--2---|-
 | . . . . . .          | .  . . . .          | . . . . . .           |
||----------------------|---------------------|-----------------------|-
||----------------------|---------------------|-----------------------|-
||----------------------|---------------------|-----------------------|-
||----------------------|---------------------|-----------------------|-
||-5-5-5-5-5-5-5--6--5--|-4--4-4-4-4-4--5--4--|-5-5-5-5-5-5-5--6--5---|-
||-2-2-2-2-2-2-2--3--2--|-1--1-1-1-1-1--2--1--|-2-2-2-2-2-2-2--3--2---|-
   . . . . . .            .  . . . .            . . . . . .

-|---------------------------------|-------------------|----------|-
-|---------------------------------|-------------------|----------|-
-|---------------------------------|-------------------|----------|-
-|---------------------------------|-------------------|----------|-
-|-4--4-4-4-4-4-4-5-5-4-4-5--5--5--|-5--6--5--4--4--4--|-4--5--4--|-
-|-1--1-1-1-1-1-1-2-2-1-1-2--2--2--|-2--3--2--1--1--1--|-1--2--1--|-
 | .  . . . . . . . . . . .  .  .  |          .  .  .  |          |
-|---------------------------------|-------------------|----------|-
-|---------------------------------|-------------------|----------|-
-|---------------------------------|-------------------|----------|-
-|---------------------------------|-------------------|----------|-
-|-4--4-4-4-4-4-4-5-5-4-4-5--5--5--|-5--6--5--4--4--4--|-4--5--4--|-
-|-1--1-1-1-1-1-1-2-2-1-1-2--2--2--|-2--3--2--1--1--1--|-1--2--1--|-
   .  . . . . . . . . . . .  .  .             .  .  .

-|-------------------|------------------------|------------------|-
-|-------------------|------------------------|------------------|-
-|-------------------|------------------------|------------------|-
-|-------------------|------------------------|------------------|-
-|-5--5--5--5--6--5--|-4--4-4-4-4-4--5======--|-4--4-4-4-4-4--5--|-
-|-2--2--2--2--3--2--|-1--1-1-1-1-1--2======--|-1--1-1-1-1-1--2--|-
 | .  .  .           | .  . . . . .           | .  . . . . .     |
-|-------------------|------------------------|------------------|-
-|-------------------|------------------------|------------------|-
-|-------------------|------------------------|------------------|-
-|-------------------|------------------------|------------------|-
-|-5--5--5--5--6--5--|-4--4-4-4-4-4--5======--|-4--4-4-4-4-4--5--|-
-|-2--2--2--2--3--2--|-1--1-1-1-1-1--2======--|-1--1-1-1-1-1--2--|-
   .  .  .             .  . . . . .             .  . . . . .

-|--------------------------------------------------|-
-|--------------------------------------------------|-
-|--------------------------------------------------|-
-|--------------------------------------------------|-
-|-222222222222111122224444555555555555444444444444-|-
-|--------------------------------------------------|-
 | ................................................ |
-|--------------------------------------------------|-
-|--------------------------------------------------|-
-|--------------------------------------------------|-
-|--------------------------------------------------|-
-|-222222222222111122224444555555555555444444444444-|-
-|--------------------------------------------------|-
   ................................................

-|------------------------|---------------------------|-
-|------------------------|---------------------------|-
-|------------------------|---------------------------|-
-|------------------------|---------------------------|-
-|-4--4-4-4-4-4--5======--|-6--5--4--4--4-4-4-4-4--5--|-
-|-1--1-1-1-1-1--2======--|-3--2--1--1--1-1-1-1-1--2--|-
 | .  . . . . .           | .  .  .  .  . . . . .     |
-|------------------------|---------------------------|-
-|------------------------|---------------------------|-
-|------------------------|---------------------------|-
-|------------------------|---------------------------|-
-|-4--4-4-4-4-4--5======--|-6--5--4--4--4-4-4-4-4--5--|-
-|-1--1-1-1-1-1--2======--|-3--2--1--1--1-1-1-1-1--2--|-
   .  . . . . .             .  .  .  .  . . . . .

-|--------------------------------------------------||
-|--------------------------------------------------||
-|--------------------------------------------------||
-|--------------------------------------------------||
-|-222222222222111122224444555555555555444444444444-||
-|--------------------------------------------------||
 | ................................................  |
-|--------------------------------------------------||
-|--------------------------------------------------||
-|--------------------------------------------------||
-|--------------------------------------------------||
-|--------------------------------------------------||
-|-444444444444333344446666777777777777666666666666-||
   ................................................

[Riff 1b]
||--------------------------------------------------------------|-
||--------------------------------------------------------------|-
||--------------------------------------------------------------|-
||--------------------------------------------------------------|-
||---------2222223333330000002222-------5555-------444455777777-|-
||-000-000------------------------0-0-0------0-0-0--------------|-
   ... ... ...................... . . . .... . . . ............

-|------------------------------------------------|-
-|------------------------------------------------|-
-|------------------------------------------------|-
-|------------------------------------------------|-
-|-2222-------222222444444000000---------------3--|-
-|------0-0-0-------------------3333333333-3-2-1--|-
   .... . . . ............................ . .

-|---------------------------------------------------------------|-
-|---------------------------------------------------------------|-
-|---------------------------------------------------------------|-
-|---------------------------------------------------------------|-
-|-2222-------222222333333000000---------------------------------|-
-|------0-0-0-------------------000-0-0-0-333-0-0-0-222233555555-|-
   .... . . . ..................... . . . ... . . . ............

-|--------------------------------------------------||
-|--------------------------------------------------||
-|--------------------------------------------------||
-|-------------------------------8--7--------5-7-9--||
-|-2222-------222222444444000000-6--5--5--4--3-5-7--||
-|------0-0-0--------------------------3--2---------||
   .... . . . ..................

[Riff 7]
||------------------------------|-----------------------------------------|-
||------------------------------|-----------------------------------------|-
||------------------------------|-----------------------------------------|-
||------------------------------|-----------------------------------------|-
||------------------------------|----2-2-3-----3-3-4-----5-5-6-----6-6-7--|-
||-0--2-2-3--0--2-2-3-3-2-2-1-1-|-0---------0---------0---------0---------|-
 | .  . . .  .  . . . . . . . . | .  . . .  .  . . .  .  . . .  .  . . .  |
||------------------------------|-----------------------------------------|-
||------------------------------|-----------------------------------------|-
||------------------------------|-----------------------------------------|-
||------------------------------|-----------------------------------------|-
||------------------------------|----2-2-3-----3-3-4-----5-5-6-----6-6-7--|-
||-0--2-2-3--0--2-2-3-3-2-2-1-1-|-0---------0---------0---------0---------|-
   .  . . .  .  . . . . . . . .   .  . . .  .  . . .  .  . . .  .  . . .

-|------------------------------|--------------------------------------|-
-|------------------------------|--------------------------------------|-
-|------------------------------|--------------------------------------|-
-|------------------------------|--------------------------------------|-
-|------------------------------|----2-2-3-----3-3---------------------|-
-|-0--2-2-3--0--2-2-3-3-2-2-1-1-|-0---------0------5-5-0-0-4-4-5-5-6-6-|-
 | .  . . .  .  . . . . . . . . | .  . . .  .  . . . . . . . . . . . . |
-|------------------------------|--------------------------------------|-
-|------------------------------|--------------------------------------|-
-|------------------------------|--------------------------------------|-
-|------------------------------|--------------------------------------|-
-|------------------------------|----2-2-3-----3-3---------------------|-
-|-0--2-2-3--0--2-2-3-3-2-2-1-1-|-0---------0------5-5-0-0-4-4-5-5-6-6-|-
   .  . . .  .  . . . . . . . .   .  . . .  .  . . . . . . . . . . . .

---------------------|------------------------------
---------------------|------------------------------
---------------------|------------------------------
---------------------|------------------------------
----5-5-8-----6-6-9--|------------------------------
-0---------0---------|-0--2-2-3--0--2-2-3-3-2-2-1-1-
 .  . . .  .  . . .  | .  . . .  .  . . . . . . . .
---------------------|------------------------------
---------------------|------------------------------
---------------------|------------------------------
----4-4-7-----5-5-8--|------------------------------
---------------------|------------------------------
-0---------0---------|-0--2-2-3--0--2-2-3-3-2-2-1-1-
 .  . . .  .  . . .    .  . . .  .  . . . . . . . .

-|---------------------------------------------|-
-|---------------------------------------------|-
-|---------------------------------------------|-
-|---------------------------------------------|-
-|-2-2-2-2-3--3-3-3-3-4--5-5-5-5-6--6-6-6-6-7--|-
-|---------------------------------------------|-
 | . . . . .  . . . . .  . . . . .  . . . . .  |
-|---------------------------------------------|-
-|---------------------------------------------|-
-|---------------------------------------------|-
-|---------------------------------------------|-
-|-2-2-2-2-3--3-3-3-3-4--5-5-5-5-6--6-6-6-6-7--|-
-|---------------------------------------------|-
   . . . . .  . . . . .  . . . . .  . . . . .

-|------------------------------|--------------------------------------|-
-|------------------------------|--------------------------------------|-
-|------------------------------|--------------------------------------|-
-|------------------------------|--------------------------------------|-
-|------------------------------|----2-2-3-----3-3---------------------|-
-|-0--2-2-3--0--2-2-3-3-2-2-1-1-|-0---------0------5-5-0-0-4-4-5-5-6-6-|-
 | .  . . .  .  . . . . . . . . | .  . . .  .  . . . . . . . . . . . . |
-|------------------------------|--------------------------------------|-
-|------------------------------|--------------------------------------|-
-|------------------------------|--------------------------------------|-
-|------------------------------|--------------------------------------|-
-|------------------------------|----2-2-3-----3-3---------------------|-
-|-0--2-2-3--0--2-2-3-3-2-2-1-1-|-0---------0------5-5-0-0-4-4-5-5-6-6-|-
   .  . . .  .  . . . . . . . .   .  . . .  .  . . . . . . . . . . . .

---------------------||
---------------------||
---------------------||
---------------------||
----5-5-8-----6-6-9--||
-0---------0---------||
 .  . . .  .  . . .   |
---------------------||
---------------------||
---------------------||
----4-4-7-----5-5-8--||
---------------------||
-0---------0---------||
.  . . .  .  . . .

[RIFF 4a* (x2)] [RIFF 4b* (x2)] [RIFF 5 (x2)] [OUTRO] [RIFF 5 (x2)] [OUTRO]
[RIFF 7]

END OF SONG                    
Добавлено: 17.04.2012
Другие материалы по этой песне:

Страница создана 29.03.2012
http://primanota.ru/deeds-of-flesh/banished-chords.htm
Привет, Гость.
Предлагаем пройти революционный курс по гитаре.
Подарок от PrimaNota.Ru, забирай!