PrimaNota.ru - самый крупный в мире бесплатный архив песенных текстов, аккордов, табулатур и нот


Deeds Of Flesh - Avowed Depraved - текст песни, таба, видео

Регистрация Запомнить меня
Войти через:  Facebook Google Twitter Vk Yandex Mail.ru

Deeds Of Flesh - Avowed Depraved - текст песни, таба, видео

Печатать
Просмотров: 121
                                      --- DEEDS OF FLESH ---
                              "Avowed Depraved"
                     From album: "Reduced To Ashes"
                     Copyright Unique Leader 2003
                     Transcribed by: ben chaffins

                            TABULATURE LEGEND:
                   " - tremolo             h - hammer on
                   ~ - vibrato             \ - slide down
                   p - pull off            / - slide down
                  tr - tremolo picking     ^ - pinch harmonics
                   = - sustained note      b - bend string
                p.m. - palm muting         t - tapping

Tuning is D [D, G, C, F, A, D]

[Part 1a (x2)]
||--------------------------------------------|-------------------------|
||--------------------------------------------|-------------------------|
||--------------------------------------------|-------------------------|
||-------------------------3------------------|-------------------------|
||-444---------222---------1-------------4\3--|-444---------222---------|
||-----000-000-----000-000---000-000-0-1-2\1--|-----000-000-----000-000-|
   ... ... ... ... ... ...   ... ... . .        ... ... ... ... ... ...

---------------------------|-------------------------||
---------------------------|-------------------------||
---------------------------|-------------------------||
-3-------------------------|---------------------4-5-||
-1---------------------4\3-|-444-------------3-4-----||
---000-000-0-1-1-2-2-3-2\1-|-----000-000-3-4---------||
   ... ... . . . . . .       ... ... ... . . . . . .

[Part 1b]
||--------------------------------------------|-------------------------|
||--------------------------------------------|-------------------------|
||--------------------------------------------|-------------------------|
||-------------------------3------------------|-------------------------|
||-444---------222---------1-------------4\3--|-444---------222---------|
||-----000-000-----000-000---000-000-0-1-2\1--|-----000-000-----000-000-|
   ... ... ... ... ... ...   ... ... . .        ... ... ... ... ... ...

---------------------------||
---------------------------||
---------------------------||
-3-------------------------||
-1---------------------4\3-||
---000-000-0-1-1-2-2-3-2\1-||
   ... ... . . . . . .

[Part 2 (x4)]
||--------------------------------------------------||
||--------------------------------------------------||
||--------------------------------------------------||
||--------------------------------------------------||
||-444444------------222255444444-4-4-4-5-5-5-2-2-2-||
||-------000000222222-------------5-5-5-6-6-6-3-3-3-||
                                  . . . . . . . . .
[Part 3]
||-------------------------------|-------------------------------------|
||-------------------------------|-------------------------------------|
||-------------------------------|-------------------------------------|
||-------------------------------|-------------------------------------|
||-4-4-4-5-5-5-2-2-2-2==-4--4--4-|-4-4-4-5-5-5-2-2-2-4-4-4-5-5-5-2-2-2-|
||-5-5-5-6-6-6-3-3-3-0==-0--0--0-|-5-5-5-6-6-6-3-3-3-5-5-5-6-6-6-3-3-3-|
   . . . . . . . . .               . . . . . . . . . . . . . . . . . .

-------------||
-------------||
-------------||
-------------||
-2==-4--4--3-||
-0==-0--0--0-||

[PART 2 (x4)] [PART 3] [PART 1a]

[Part 4a (x2)]
||---------------------------|---------------------------------||
||---------------------------|---------------------------------||
||---------------------------|---------------------------------||
||---------------------------|-----3-4-----3-4-4-5---------3-4-||
||-3-3-4--3--3-3-4--3--5--4--|-3-4-----3-4---------3-4-3-4-----||
||-1-1-2--1--1-1-2--1--3--2--|---------------------------------||
|  . . .  .  . . .  .  .  .    . . . . . . . . . . . . . . . .  |
||---------------------------|---------------------------------||
||---------------------------|---------------------------------||
||---------------------------|---------------------------------||
||---------------------------|-----3-4-----3-4-4-5---------3-4-||
||-3-3-4--3--3-3-4--3--5--4--|-3-4-----3-4---------3-4-3-4-----||
||-1-1-2--1--1-1-2--1--3--2--|---------------------------------||
   . . .  .  . . .  .  .  .    . . . . . . . . . . . . . . . .

[Part 4b]
||---------------------------|---------------------------------|
||---------------------------|---------------------------------|
||---------------------------|---------------------------------|
||---------------------------|-----3-4-----3-4-4-5---------3-4-|
||-3-3-4--3--3-3-4--3--5--4--|-3-4-----3-4---------3-4-3-4-----|
||-1-1-2--1--1-1-2--1--3--2--|---------------------------------|
|  . . .  .  . . .  .  .  .    . . . . . . . . . . . . . . . .
||---------------------------|---------------------------------|
||---------------------------|---------------------------------|
||---------------------------|---------------------------------|
||---------------------------|---------------------------------|
||-3-3-4--3--3-3-4--3--5--4--|-----5-6-----5-6-6-7---------5-6-|
||-1-1-2--1--1-1-2--1--3--2--|-5-6-----5-6---------5-6-5-6-----|
   . . .  .  . . .  .  .  .    . . . . . . . . . . . . . . . .

--------------------------||
--------------------------||
--------------------------||
--------------------------||
-3-3-4--3--3-3-4--3--5\4--||
-1-1-2--1--1-1-2--1--3\2--||
 . . .  .  . . .  .        |
--------------------------||
--------------------------||
--------------------------||
--------------------------||
-3-3-4--3--3-3-4--3--5\4--||
-1-1-2--1--1-1-2--1--3\2--||
 . . .  .  . . .  .

[Part 5a]
||---------------------------------------------|---------------------|
||---------------------------------------------|---------------------|
||---------------------------------------------|---------------------|
||---------------------------------------------|---------------------|
||---------------------------------------------|---------------------|
||-222222444555444-2-2-111111111111111-0-0-2-2-|-222222444555444-2-2-|
|                  . .                 . . . . |                 . .
||---------------------------------------------|---------------------|
||---------------------------------------------|---------------------|
||---------------------------------------------|---------------------|
||---------------------------------------------|---------------------|
||---------------------------------------------|---------------------|
||-222222444555444-2-2-111111111111111-0-0-2-2-|-555555777888777-5-5-|
                   . .                 . . . .                   . .

------------------------|----------------------------------||
------------------------|----------------------------------||
------------------------|----------------------------------||
------------------------|----------------------------------||
---------------------2--|----------------------------------||
-111111111111111-0-0-0--|-555588775577554444444444-0-0-2-2-||
                 . .    | ........................ . . . .  |
------------------------|----------------------------------||
------------------------|----------------------------------||
------------------------|----------------------------------||
------------------------|----------------------------------||
---------------------2--|----------------------------------||
-444444444444444-0-0-0--|-222255442244221111111111-0-0-2-2-||
                 . .      ........................ . . . .

[Outro 1]
|---------------------------------|---------------------------------|
|---------------------------------|---------------------------------|
|---------------------------------|---------------------------------|
|-6-6-3-5-5-5-4-4-2-2-3-3---------|-----3-4-----3-4-4-5---------3-4-|
|-------------------------2-2-----|-3-4-----3-4---------3-4-3-4-----|
|-----------------------------3-3-|---------------------------------|
| . . . . . . . . . . . . . . . . | . . . . . . . . . . . . . . . .
|---------------------------------|---------------------------------|
|---------------------------------|---------------------------------|
|---------------------------------|---------------------------------|
|-6-6-3-5-5-5-4-4-2-2-3-3---------|-----3-4-----3-4-4-5---------3-4-|
|-------------------------2-2-----|-3-4-----3-4---------3-4-3-4-----|
|-----------------------------3-3-|---------------------------------|
  . . . . . . . . . . . . . . . .   . . . . . . . . . . . . . . . .

---------------------------------|---------------------------------|
---------------------------------|---------------------------------|
---------------------------------|---------------------------------|
-----3-4-----3-4-4-5---------3-4-|---------------------------------|
-3-4-----3-4---------3-4-3-4-----|-----5-6-----5-6-6-7---------5-6-|
---------------------------------|-5-6-----5-6---------5-6-5-6-----|
 . . . . . . . . . . . . . . . . | . . . . . . . . . . . . . . . . |
---------------------------------|---------------------------------|
---------------------------------|---------------------------------|
---------------------------------|---------------------------------|
-----3-4-----3-4-4-5---------3-4-|-----3-4-----3-4-4-5---------3-4-|
-3-4-----3-4---------3-4-3-4-----|-3-4-----3-4---------3-4-3-4-----|
---------------------------------|---------------------------------|
 . . . . . . . . . . . . . . . .   . . . . . . . . . . . . . . . .

[Part 6a (x2)]
||---------------------------|---------------------------------||
||---------------------------|---------------------------------||
||---------------------------|---------------------------------||
||---------------------------|---------------------------------||
||-3-3-4--3--3-3-4--3--5--4--|-----5-6-----5-6-6-7---------5-6-||
||-1-1-2--1--1-1-2--1--3--2--|-5-6-----5-6---------5-6-5-6-----||
|  . . .  .  . . .  .  .  .  | . . . . . . . . . . . . . . . .  |
||---------------------------|---------------------------------||
||---------------------------|---------------------------------||
||---------------------------|---------------------------------||
||---------------------------|-----3-4-----3-4-4-5---------3-4-||
||-3-3-4--3--3-3-4--3--5--4--|-3-4-----3-4---------3-4-3-4-----||
||-1-1-2--1--1-1-2--1--3--2--|---------------------------------||
   . . .  .  . . .  .  .  .    . . . . . . . . . . . . . . . .

[Part 6b]
||---------------------------|---------------------------------|
||---------------------------|---------------------------------|
||---------------------------|---------------------------------|
||---------------------------|-----3-4-----3-4-4-5---------3-4-|
||-3-3-4--3--3-3-4--3--5--4--|-3-4-----3-4---------3-4-3-4-----|
||-1-1-2--1--1-1-2--1--3--2--|---------------------------------|
|  . . .  .  . . .  .  .  .  | . . . . . . . . . . . . . . . .
||---------------------------|---------------------------------|
||---------------------------|---------------------------------|
||---------------------------|---------------------------------|
||---------------------------|-----3-4-----3-4-4-5---------3-4-|
||-3-3-4--3--3-3-4--3--5--4--|-3-4-----3-4---------3-4-3-4-----|
||-1-1-2--1--1-1-2--1--3--2--|---------------------------------|
   . . .  .  . . .  .  .  .    . . . . . . . . . . . . . . . .

-------------------------||
-------------------------||
-------------------------||
-------------------------||
-3-3-4--3--3-3-4--3--5\4-||
-1-1-2--1--1-1-2--1--3\2-||
 . . .  .  . . .  .       |
-------------------------||
-------------------------||
-------------------------||
-------------------------||
-3-3-4--3--3-3-4--3--5\4-||
-1-1-2--1--1-1-2--1--3\2-||
 . . .  .  . . .  .

[PART 5]

[Outro 2]
|---------------------------------|-----------------------------------------|
|---------------------------------|-----------------------------------------|
|---------------------------------|-----------------------------------------|
|-6-6-3-5-5-5-4-4-2-2-3-3---------|---------3-4--------------3-4------------|
|-------------------------2-2-----|-----3-4-----5===-----3-4-----4--5--2===-|
|-----------------------------3-3-|-2-3---------3===-2-3---------2--3--0===-|
  . . . . . . . . . . . . . . . .   . . . . . .      . . . . . .

[Outro 3]
|---------------------------|---------------|
|---------------------------|---------------|
|---------------------------|---------------|
|---------------------------|---------------|
|-3-3-4--3--3-3-4--3--5--4--|-5-5-3-3-4--3--|
|-1-1-2--1--1-1-2--1--3--2--|-3-3-1-1-2--1--|
| . . .  .  . . .  .  .  .  | . . . . .  .
|---------------------------|---------------|
|---------------------------|---------------|
|---------------------------|---------------|
|---------------------------|---------------|
|-3-3-4--3------------------|-5-5-3-3-4--3--|
|-1-1-2--1------------------|-3-3-1-1-2--1--|


------------------------------------------|
------------------------------------------|
------------------------------------------|
------------------------------------------|
-3-3-4--3--5--4--5-5-3-3-4--3----3-3-4-4--|
-1-1-2--1--3--2--3-3-1-1-2--1----1-1-2-2--|
 . . .  .  .  .  . . . . .  .    . . . .  |
------------------------------------------|
------------------------------------------|
------------------------------------------|
------------------------------------------|
-3-3-4--3--5--4--5-5-3-3-4--3----3-3-4-4--|
-1-1-2--1--3--2--3-3-1-1-2--1----1-1-2-2--|
 . . .  .  .  .  . . . . .  .    . . . .

[Part 7 (x2)]
||---------------|-------------|---------------|
||---------------|-------------|---------------|
||---------------|-------------|---------------|
||---------------|-------------|---------------|
||-3-3-4--3--3-3-|-4--3--5--4--|-5-5-3-3-4--3--|
||-1-1-2--1--1-1-|-2--1--3--2--|-3-3-1-1-2--1--|
|  . . .  .  . . | .  .  .  .  | . . . . .  .
||---------------|-------------|---------------|
||---------------|-------------|---------------|
||---------------|-------------|---------------|
||---------------|-------------|---------------|
||-3-3-4--3--3-3-|-4--3--5--4--|-5-5-3-3-4--3--|
||-1-1-2--1--1-1-|-2--1--3--2--|-3-3-1-1-2--1--|
   . . .  .  . .   .  .  .  .    . . . . .  .

--------------|---------------|---------------||
--------------|---------------|---------------||
--------------|---------------|---------------||
--------------|---------------|---------------||
-3-3-4--3--5--|-4--5-5-3-3-4--|-3----3-3-4-4--||
-1-1-2--1--3--|-2--3-3-1-1-2--|-1----1-1-2-2--||
 . . .  .  .  | .  . . . . .  | .    . . . .   |
--------------|---------------|---------------||
--------------|---------------|---------------||
--------------|---------------|---------------||
--------------|---------------|---------------||
-3-3-4--3--5--|-4--5-5-3-3-4--|-3----3-3-4-4--||
-1-1-2--1--3--|-2--3-3-1-1-2--|-1----1-1-2-2--||
 . . .  .  .    .  . . . . .    .    . . . .

[Part 8]
||-------------------------------------------------------------|
||-------------------------------------------------------------|
||-------------------------------------------------------------|
||---------------------------------------------------4--4--3---|
||------------------------------66666666-2--5--4--7--2--2--1---|
||-333333336666666644444444-5-5----------0--3--2--5--2--2--1---|
                            . .          .  .  .  .  .  .  .

-|----------------------------------------------------------||
-|----------------------------------------------------------||
-|----------------------------------------------------------||
-|----------------------------------------------------------||
-|------------------------------66665555--------2--5--4--8--||
-|-333333336666666644444444-5-5---------4444444-0--3--2--6--||
                            . .                 .  .  .  .

[Part 9 (x2)]
||--------------|-------------|--------------|
||--------------|-------------|--------------|
||--------------|-------------|--------------|
||----------4-4-|-4--3--6--6--|-5--7--7--6---|
||-2--2--1--2-2-|-2--1--4--4--|-3--5--5--4---|
||-2--2--1--2-2-|-2--1--4--4--|-3--5--5--4---|
   .  .  .  . .   .  .  .  .    .  .  .  .

-|--------------|-------------|-------------|-------------||
-|--------------|-------------|-------------|-------------||
-|--------------|-------------|-------------|-------------||
-|----------4-4-|-4--3--6--6--|-5--7--7--6--|-------------||
-|-2--2--1--2-2-|-2--1--4--4--|-3--5--5--4--|-2--5--4--8--||
-|-2--2--1--2-2-|-2--1--4--4--|-3--5--5--4--|-0--3--2--6--||
   .  .  .  . .   .  .  .  .    .  .  .  .

[PART 8] [PART 9 (x2)]

[Part 10 (x2)]
||--------------------------|---------------------------|
||--------------------------|---------------------------|
||--------------------------|---------------------------|
||--------------------------|---------------------------|
||-666677776666555566665555-|-444455554444333344443333--|
||--------------------------|---------------------------|
|  ........................ | ........................ |
||--------------------------|---------------------------|
||--------------------------|---------------------------|
||--------------------------|---------------------------|
||-555566665555444455554444-|-333344443333222233332222--|
||--------------------------|---------------------------|
||--------------------------|---------------------------|
   ........................   ........................

                                                     [ending 1]
-|--------------------------|----------------------------------||
-|--------------------------|----------------------------------||
-|--------------------------|----------------------------------||
-|--------------------------|----------------------------------||
-|-666677776666555566665555-|-444455554444333344443333-2-------||
-|--------------------------|--------------------------0-12\---||
 | ........................ | ........................          |
-|--------------------------|----------------------------------||
-|--------------------------|----------------------------------||
-|--------------------------|----------------------------------||
-|-555566665555444455554444-|-333344443333222233332222---------||
-|--------------------------|--------------------------2-------||
-|--------------------------|--------------------------0-12\---||
   ........................   ........................

[Ending 2]
||---------------------------------------------[x4]-||
||--------------------------------------------------||
||--------------------------------------------------||
||--------------------------------------------------||
||-444444------------222255444444-4-4-4-5-5-5-2-2-2-||
||-------000000222222-------------5-5-5-6-6-6-3-3-3-||
                                  . . . . . . . . .

[Outro 4]              PART 10
|-------------------||--[x2]--||-------|
|-------------------||--------||-------|
|-------------------||--------||-------|
|-------------------||--------||-------|
|-4-4-4-5-5-5-2-2-2-||--------||-2--2--|
|-5-5-5-6-6-6-3-3-3-||--------||-0--0--|
  . . . . . . . . .              .  .

[PART 8] [PART 9 (x2)]

[Part 5b]
||---------------------------------------------|---------------------|
||---------------------------------------------|---------------------|
||---------------------------------------------|---------------------|
||---------------------------------------------|---------------------|
||---------------------------------------------|---------------------|
||-222222444555444-2-2-111111111111111-0-0-2-2-|-222222444555444-2-2-|
|                  . .                 . . . . |                 . .
||---------------------------------------------|---------------------|
||---------------------------------------------|---------------------|
||---------------------------------------------|---------------------|
||---------------------------------------------|---------------------|
||---------------------------------------------|---------------------|
||-222222444555444-2-2-111111111111111-0-0-2-2-|-222222444555444-2-2-|
                   . .                 . . . .                   . .

------------------------|-----------------------------------|
------------------------|-----------------------------------|
------------------------|-----------------------------------|
------------------------|-----------------------------------|
------------------------|-----------------------------------|
-111111111111111-0-0-7~-|-555588775577554444444444-0-0-2-2--|
                 . .    | ........................ . . . . |
------------------------|-----------------------------------|
------------------------|-----------------------------------|
------------------------|-----------------------------------|
------------------------|-----------------------------------|
------------------------|-----------------------------------|
-111111111111111-0-0-7~-|-555588775577554444444444-0-0-2-2--|
                 . .      ........................ . . . .

-|---------------------------------------------|
-|---------------------------------------------|
-|---------------------------------------------|
-|---------------------------------------------|
-|-----------------------------------------2---|
-|-222222444555444-2-2-111111111111111-0-0-0---|
 |                 . .                 . .    |
-|---------------------------------------------|
-|---------------------------------------------|
-|---------------------------------------------|
-|---------------------------------------------|
-|-----------------------------------------2---|
-|-555555777888777-5-5-444444444444444-0-0-0---|
                  . .                 . .

----------------------------------||
----------------------------------||
----------------------------------||
----------------------------------||
----------------------------------||
-555588775577554444444444-0-0-2-2-||
 ........................ . . . .  |
----------------------------------||
----------------------------------||
----------------------------------||
----------------------------------||
----------------------------------||
-222255442244221111111111-0-0-2-2-||
 ........................ . . . .

[PART 7 (x2)]

[Ending]
|---------------|-------------|----------------|
|---------------|-------------|----------------|
|---------------|-------------|----------------|
|---------------|-------------|----------------|
|-3-3-4--3--3-3-|-4--3--5--4--|-5-5-3-3-4--3---|
|-1-1-2--1--1-1-|-2--1--3--2--|-3-3-1-1-2--1---|
| . . .  .  . . | .  .  .  .  | . . . . .  .  |
|---------------|-------------|----------------|
|---------------|-------------|----------------|
|---------------|-------------|----------------|
|---------------|-------------|----------------|
|-3-3-4--3--3-3-|-4--3--5--4--|-5-5-3-3-4--3---|
|-1-1-2--1--1-1-|-2--1--3--2--|-3-3-1-1-2--1---|


-|--------------|---------------|---------|
-|--------------|---------------|---------|
-|--------------|---------------|---------|
-|--------------|---------------|---------|
-|-3-3-4--3--5--|-4--5-5-3-3-4--|-3-------|
-|-1-1-2--1--3--|-2--3-3-1-1-2--|-1-------|
 | . . .  .  .  | .  . . . . .  | .       |
-|--------------|---------------|---------|
-|--------------|---------------|---------|
-|--------------|---------------|---------|
-|--------------|---------------|---------|
-|-3-3-4--3--5--|-4--5-5-3-3-4--|-3-------|
-|-1-1-2--1--3--|-2--3-3-1-1-2--|-1-------|
   . . .  .  .    .  . . . . .    .

|----------------------------|
|----------------------------|
|----------------------------|
|----------------------------|
|-----5-6-----5-6-6-7-3------|
|-5-6-----5-6---------1------|
| . . . . . . . . . . .      |
|----------------------------|
|----------------------------|
|----------------------------|
|-----3-4-----3-4-4-5--------|
|-3-4-----3-4---------3------|
|---------------------1------|
  . . . . . . . . . . .

END OF SONG
Добавлено: 14.05.2012
Другие материалы по этой песне:

Страница создана 11.03.2012
http://primanota.ru/deeds-of-flesh/avowed-depraved-chords.htm
Привет, Гость.
Предлагаем пройти революционный курс по гитаре.
Подарок от PrimaNota.Ru, забирай!