PrimaNota.ru - самый крупный в мире бесплатный архив песенных текстов, аккордов, табулатур и нот


Deeds Of Flesh - An Eternity Of Feasting And Brawling - текст песни, таба, видео

Регистрация Запомнить меня
Войти через:  Facebook Google Twitter Vk Yandex Mail.ru

Deeds Of Flesh - An Eternity Of Feasting And Brawling - текст песни, таба, видео

Печатать
Просмотров: 113
               Song : AN ETERNITY OF FEASTING AND BRAWLING
Band : DEEDS OF FLESH
ALBUM : Mark Of The Legion
tabber ben chaffins
::TABULATURE LEGEND::
 " - tremolo             h - hammer on
 ~ - vibrato             \ - slide down
 p - pull off            / - slide down
 tr - trill              ^ - pinch harmonics
 = - sustained note      b - bend string
 p.m. - palm muting      t - tapping

Tuning is D [D, G, C, F, A, D]

[Part 1 (x4)]
||---------------------------------------------------------|
||---------------------------------------------------------|
||---------------------------------------------------------|
||-----------------------------------------7-6-7-----------|
||-8-7-4-5--8-7-6-5"..-----7-6-7-3"..-2"..-5-4-5-6"..------|
||-6-5-2-3--6-5-4-----3"..-5-4-5----------------------2"..-|
|  . . .    . . .          . . .           . . .
||---------------------------------------------------------|
||---------------------------------------------------------|
||---------------------------------------------------------|
||-----------------------------------------7-6-7-----------|
||-8-7-4-5--8-7-6-5"..-----7-6-7-3"..-2"..-5-4-5-6"..------|
||-6-5-2-3--6-5-4-----3"..-5-4-5----------------------2"..-|
   . . .    . . .          . . .           . . .

[ending 1,3]                       [ending 2]
-----------------------------||    -----------------------------||
-----------------------------||    -----------------------------||
-----------------------------||    -----------------------------||
---------4-----4-------------||    ---------4-----4-------------||
-5---------2-2---2-2---------||    -5---------2-2---2-2---------||
---3-2-2-------------5-3-2-2-||    ---3-2-2-------------5-3-2-2-||
 . . . . . . . . . . . . . .  |     . . . . . . . . . . . . . .  |
-----------------------------||    -----------------------------||
-----------------------------||    -----------------------------||
-----------------------------||    -----------------------------||
---------4-----4-------------||    ---------7-----7-------------||
-5---------2-2---2-2---------||    -8---------5-5---5-5---------||
---3-2-2-------------5-3-2-2-||    ---6-5-5-------------8-6-5-5-||
 . . . . . . . . . . . . . .        . . . . . . . . . . . . . .

[ending 4]
-----------------------------|-----------------------------||
-----------------------------|-----------------------------||
-----------------------------|-----------------------------||
---------4-----4-------------|---------4-----4-------------||
-5---------2-2---2-2---------|-5---------2-2---2-2---------||
---3-2-2-------------5-3-2-2-|---3-2-2-------------5-3-2-2-||
 . . . . . . . . . . . . . . | . . . . . . . . . . . . . .  |
-----------------------------|-----------------------------||
-----------------------------|-----------------------------||
-----------------------------|---------------7-------------||
---------7-----7-------------|---------7-------------------||
-8---------5-5---5-5---------|-8---------5-5---5-5---------||
---6-5-5-------------8-6-5-5-|---6-5-5-------------8-6-5-5-||
 . . . . . . . . . . . . . .   . . . . . . . . . . . . . .

[Part 2 (x2)]
||-------------------------------|------------------------------------||
||-------------------------------|------------------------------------||
||-------------------------------|------------------------------------||
||-------------------------------|---------------------7"..-----------||
||------7"..-----------5"..-8"..-|------7"..----------------5"..-6"..-||
||-5"..------8"..-5"..-----------|-5"..------8"..-6"..----------------||

[Part 3 (x4)]
||---------------------------------------------------------||
||---------------------------------------------------------||
||---------------------------------------------------------||
||----------7-----------5--4--7-6-7-8----------------------||
||-5--8-7-6-5--5--7-6-7-3--2--5-4-5-6--4--4-5-6----------4-||
||-3--6-5-4----3--5-4-5----------------2--2-3-4-55553333-2-||
      . . .       . . .       . . .       . . . ........

[Outro]
|-----------------------|
|-----------------------|
|-----------------------|
|---------------7--6--5-|
|-5--4--3-------5--4--3-|
|-3--2--1-------5--4--3-|
  .  .  .       .  .  .

[Part 4a]
||-------------------------|---------------------------------|
||-------------------------|---------------------------------|
||-------------------------|---------------------------------|
||-------------------------|---------------------------------|
||-----555-444-----444-333-|-7-6-7-6-----555-444-----444-333-|
||-000---------000---------|-5-4-5-4-000---------000---------|
|  ... ... ... ... ... ... | . . . . ... ... ... ... ... ...
||-------------------------|---------------------------------|
||-------------------------|---------------------------------|
||-------------------------|---------------------------------|
||-------------------------|---------------------------------|
||-----555-444-----444-333-|-7-6-7-6-----555-444-----444-333-|
||-000---------000---------|-5-4-5-4-000---------000---------|
   ... ... ... ... ... ...   . . . . ... ... ... ... ... ...

-------------------------|----------------------------------|
-------------------------|----------------------------------|
-------------------------|----------------------------------|
-------------------------|----------------------------------|
-6-5-4--5-4-3------------|-----555-444-----444-333--7-6-7-6-|
-4-3-2--3-2-1--0-0-1h2p1-|-000---------000----------5-4-5-4-|
 . .    . .    . .       | ... ... ... ... ... ...  . . . .
-------------------------|----------------------------------|
-------------------------|----------------------------------|
-------------------------|----------------------------------|
-------------------------|-----555-444-----444-333----------|
-6-5-4--5-4-3------------|--------------------------7-6-7-6-|
-4-3-2--3-2-1--0-0-1h2p1-|-000---------000----------5-4-5-4-|
 . .    . .    . .         ... ... ... ... ... ...  . . . .

--------------------------------------------------|
--------------------------------------------------|
--------------------------------------------------|
--------------------------------------------------|
-----555-444-----444-333--6-5-4--5-4-3------------|
-000---------000----------4-3-2--3-2-1--0-0-1h2p0-|
 ... ... ... ... ... ...  . .    . .    . .       |
--------------------------------------------------|
--------------------------------------------------|
--------------------------------------------------|
-----555-444-----444-333--------------------------|
--------------------------6-5-4--5-4-3------------|
-000---------000----------4-3-2--3-2-1--0-0-1h2p1-|
 ... ... ... ... ... ...  . .    . .    . .

|----------|----------|
|----------|----------|
|----------|----------|
|----------|-7--6--5--|
|-5--4--3--|-5--4--3--|
|-3--2--1--|-5--4--3--|
  .  .  .    .  .  .

[Part 4b (x2)]
||-------------------------|---------------------------------|
||-------------------------|---------------------------------|
||-------------------------|---------------------------------|
||-------------------------|---------------------------------|
||-----555-444-----444-333-|-7-6-7-6-----555-444-----444-333-|
||-000---------000---------|-5-4-5-4-000---------000---------|
|  ... ... ... ... ... ... | . . . . ... ... ... ... ... ...
||-------------------------|---------------------------------|
||-------------------------|---------------------------------|
||-------------------------|---------------------------------|
||-------------------------|---------------------------------|
||-----555-444-----444-333-|-7-6-7-6-----555-444-----444-333-|
||-000---------000---------|-5-4-5-4-000---------000---------|
   ... ... ... ... ... ...   . . . . ... ... ... ... ... ...

-------------------------||
-------------------------||
-------------------------||
-------------------------||
-6-5-4--5-4-3------------||
-4-3-2--3-2-1--0-0-1h2p1-||
 . .    . .    . .        |
-------------------------||
-------------------------||
-------------------------||
-------------------------||
-6-5-4--5-4-3------------||
-4-3-2--3-2-1--0-0-1h2p1-||
 . .    . .    . .

[Part 5 (x2)]
||---------------------------------------------------|
||---------------------------------------------------|
||---------------------------------------------------|
||--------------------------------------555555444444-|
||-4-4-4-444445544444-4-4-4-444445544444-------------|
||-2-2-2--------------2-2-2--------------------------|
|  . . .              . . .
||---------------------------------------------------|
||---------------------------------------------------|
||---------------------------------------------------|
||--------------------------------------555555444444-|
||-4-4-4-444445544444-4-4-4-444445544444-------------|
||-2-2-2--------------2-2-2--------------------------|
   . . .              . . .

-|-------------------------------------------------|--------------------|
-|-------------------------------------------------|--------------------|
-|-------------------------------------------------|--------------------|
-|-------------------------------------------------|--------------------|
-|-4-4-4-444445544444-4-4-444445544444-------------|-4-4-4-444445544444-|
-|-2-2-2--------------2-2-------------111111111111-|-2-2-2--------------|
 | . . .              . .                          | . . .
-|-------------------------------------------------|--------------------|
-|-------------------------------------------------|--------------------|
-|-------------------------------------------------|--------------------|
-|-------------------------------------------------|--------------------|
-|-4-4-4-444445544444-4-4-444445544444-------------|-4-4-4-444445544444-|
-|-2-2-2--------------2-2-------------111111111111-|-2-2-2--------------|
   . . .              . .                            . . .

[ending 1]
---------------------------------------------|--------------------|
---------------------------------------------|--------------------|
---------------------------------------------|--------------------|
--------------------------------555555444444-|--------------------|
-444445544444-4-4-4-444445544444-------------|-4-4-4-444445544444-|
--------------2-2-2--------------------------|-2-2-2--------------|
              . . .                          | . . .
---------------------------------------------|--------------------|
---------------------------------------------|--------------------|
---------------------------------------------|--------------------|
--------------------------------888888777777-|--------------------|
-444445544444-4-4-4-444445544444-------------|-4-4-4-444445544444-|
--------------2-2-2--------------------------|-2-2-2--------------|
              . . .                            . . .

-|-------------------------------------------------------||
-|-------------------------------------------------------||
-|-------------------------------------------------------||
-|------------------------------------------222222444444-||
-|-4-4-4-444445544444-4-4-444445544444-------------------||
-|-2-2-2--------------2-2-------------111111-------------||
 | . . .              . .                                 |
-|-------------------------------------------------------||
-|-------------------------------------------------------||
-|-------------------------------------------------------||
-|------------------------------------------222222444444-||
-|-4-4-4-444445544444-4-4-444445544444-------------------||
-|-2-2-2--------------2-2-------------111111-------------||
   . . .              . .

[ending 2]
---------------------------------------------|--------------------|
---------------------------------------------|--------------------|
---------------------------------------------|--------------------|
--------------------------------555555444444-|--------------------|
-444445544444-4-4-4-444445544444-------------|-4-4-4-444445544444-|
--------------2-2-2--------------------------|-2-2-2--------------|
              . . .                          | . . .
---------------------------------------------|--------------------|
---------------------------------------------|--------------------|
---------------------------------------------|--------------------|
--------------------------------555555444444-|--------------------|
-444445544444-4-4-4-444445544444-------------|-4-4-4-444445544444-|
--------------2-2-2--------------------------|-2-2-2--------------|
              . . .                            . . .

-|-------------------------------------------------------||
-|-------------------------------------------------------||
-|-------------------------------------------------------||
-|------------------------------------------222222444444-||
-|-4-4-4-444445544444-4-4-444445544444-------------------||
-|-2-2-2--------------2-2-------------111111-------------||
 | . . .              . .                                 |
-|-------------------------------------------------------||
-|-------------------------------------------------------||
-|-------------------------------------------------------||
-|------------------------------------------666666888888-||
-|-4-4-4-444445544444-4-4-444445544444-------------------||
-|-2-2-2--------------2-2-------------111111-------------||
   . . .              . .

[Part 6]
||----------------------[x4]-|--------------------|
||---------------------------|--------------------|
||---------------------------|--------------------|
||-------------------1-2-2-4-|--------------------|
||-2-1-0-6-7-6-4-2-4-1-2-2-4-|-5--4-5-6--5--3--2--|
||-2-1-0-6-7-6-4-2-4---------|-5--4-5-6--5--3--2--|
   . . . . . . . . . . . . .

-|----------------------[x4]-||
-|---------------------------||
-|---------------------------||
-|-------------------1-2-2-4-||
-|-2-1-0-6-7-6-4-2-4-1-2-2-4-||
-|-2-1-0-6-7-6-4-2-4---------||
   . . . . . . . . . . . . .

[Part 7a (x2)]
||-------------------------------------||
||-------------------------------------||
||-------------------------------------||
||-------------------------------------||
||-5--4-5-6--5--3--^-------------------||
||-5--4-5-6--5--3--2~-7777666711"-10"--||
|                     ................  |
||-------------------------------------||
||-------------------------------------||
||-------------------------------------||
||-------------------------------------||
||-5--4-5-6--5--3--^--5555444599998888-||
||-5--4-5-6--5--3--2~------------------||
                      ................

[Part 7b (x2)]
||------------------------------------------||
||------------------------------------------||
||------------------------------------------||
||------------------------------------------||
||------------------------------------------||
||-5555444566665555333322227777666711"-10"--||
|                          ................  |
||------------------------------------------||
||------------------------------------------||
||------------------------------------------||
||------------------------------------------||
||-------------------------5555444599998888-||
||-555544456666555533332222-----------------||
                           ................

[Part 8 (x2)]
||---------------------------------------------------|
||---------------------------------------------------|
||---------------------------------------------------|
||--------------------------------------555555444444-|
||-4-4-4-444445544444-4-4-4-444445544444-------------|
||-2-2-2--------------2-2-2--------------------------|
|  . . .              . . .
||---------------------------------------------------|
||---------------------------------------------------|
||---------------------------------------------------|
||--------------------------------------555555444444-|
||-4-4-4-444445544444-4-4-4-444445544444-------------|
||-2-2-2--------------2-2-2--------------------------|
   . . .              . . .

-|-------------------------------------------------|--------------------|
-|-------------------------------------------------|--------------------|
-|-------------------------------------------------|--------------------|
-|-------------------------------------------------|--------------------|
-|-4-4-4-444445544444-4-4-444445544444-------------|-4-4-4-444445544444-|
-|-2-2-2--------------2-2-------------111111111111-|-2-2-2--------------|
 | . . .              . .                          | . . .
-|-------------------------------------------------|--------------------|
-|-------------------------------------------------|--------------------|
-|-------------------------------------------------|--------------------|
-|-------------------------------------------------|--------------------|
-|-4-4-4-444445544444-4-4-444445544444-------------|-4-4-4-444445544444-|
-|-2-2-2--------------2-2-------------111111111111-|-2-2-2--------------|
   . . .              . .                            . . .

[ending 1]
---------------------------------------------|--------------------|
---------------------------------------------|--------------------|
---------------------------------------------|--------------------|
--------------------------------555555444444-|--------------------|
-444445544444-4-4-4-444445544444-------------|-4-4-4-444445544444-|
--------------2-2-2--------------------------|-2-2-2--------------|
              . . .                          | . . .
---------------------------------------------|--------------------|
---------------------------------------------|--------------------|
---------------------------------------------|--------------------|
--------------------------------555555444444-|--------------------|
-444445544444-4-4-4-444445544444-------------|-4-4-4-444445544444-|
--------------2-2-2--------------------------|-2-2-2--------------|
              . . .                            . . .

-|-------------------------------------------------------||
-|-------------------------------------------------------||
-|-------------------------------------------------------||
-|------------------------------------------222222444444-||
-|-4-4-4-444445544444-4-4-444445544444-------------------||
-|-2-2-2--------------2-2-------------111111-------------||
 | . . .              . .                                 |
-|-------------------------------------------------------||
-|-------------------------------------------------------||
-|-------------------------------------------------------||
-|------------------------------------------222222444444-||
-|-4-4-4-444445544444-4-4-444445544444-------------------||
-|-2-2-2--------------2-2-------------111111-------------||
   . . .              . .

[ending 2]
---------------------------------------------|--------------------|
---------------------------------------------|--------------------|
---------------------------------------------|--------------------|
--------------------------------555555444444-|--------------------|
-444445544444-4-4-4-444445544444-------------|-4-4-4-444445544444-|
--------------2-2-2--------------------------|-2-2-2--------------|
              . . .                          | . . .
---------------------------------------------|--------------------|
---------------------------------------------|--------------------|
---------------------------------------------|--------------------|
--------------------------------555555444444-|--------------------|
-444445544444-4-4-4-444445544444-------------|-4-4-4-444445544444-|
--------------2-2-2--------------------------|-2-2-2--------------|
              . . .                            . . .

-|-------------------------------------------------------||
-|-------------------------------------------------------||
-|-------------------------------------------------------||
-|------------------------------------------222222444444-||
-|-4-4-4-444445544444-4-4-444445544444-------------------||
-|-2-2-2--------------2-2-------------111111-------------||
 | . . .              . .                                 |
-|-------------------------------------------------------||
-|-------------------------------------------------------||
-|-------------------------------------------------------||
-|------------------------------------------666666888888-||
-|-4-4-4-444445544444-4-4-444445544444-------------------||
-|-2-2-2--------------2-2-------------111111-------------||
   . . .              . .

[PART 2 (x2)]

[Outro 2]
||---------------------------------------------------|
||---------------------------------------------------|
||---------------------------------------------------|
||-----------------------------------7-6-7-----------|
||-5--8-7-6-5"..-----7-6-7-3"..-2"..-5-4-5-6"..------|
||-3--6-5-4-----3"..-5-4-5----------------------2"..-|
|     . . .          . . .           . . .
||---------------------------------------------------|
||---------------------------------------------------|
||---------------------------------------------------|
||-----------------------------------7-6-7-----------|
||-5--8-7-6-5"..-----7-6-7-3"..-2"..-5-4-5-6"..------|
||-3--6-5-4-----3"..-5-4-5----------------------2"..-|
      . . .          . . .           . . .

[ending 1] [PART 1] [ending 2] [PART 1] [ending 3] [PART 1] [ending 4]

End
||---------------|
||---------------|
||---------------|
||---------------|
||-8-7-4-5=====--|
||-6-5-2-3=====--|
|  . . .
||---------------|
||---------------|
||---------------|
||---------------|
||-8-7-4-5=====--|
||-6-5-2-3=====--|
   . . .

END OF SONG
Добавлено: 21.06.2012
Другие материалы по этой песне:
  • Аккорды и текст

Страница создана 01.06.2012
http://primanota.ru/deeds-of-flesh/an-eternity-of-feasting-and-brawling-chords.htm
Привет, Гость.
Предлагаем пройти революционный курс по гитаре.
Подарок от PrimaNota.Ru, забирай!