PrimaNota.ru - самый крупный в мире бесплатный архив песенных текстов, аккордов, табулатур и нот


Decyfer Down - Wasting Away - текст песни, таба, видео

Регистрация Запомнить меня
Войти через:  Facebook Google Twitter Vk Yandex Mail.ru

Decyfer Down - Wasting Away - текст песни, таба, видео

Печатать
Просмотров: 258
----------------------------------------------------------------------------
                         Wasting Away - Decyfer Down
-----------------------------------------------------------------------------
Tabbed by: Michael Cage
Email: gamecentral1@live.com  ( Please Rate )

Tuning: Drop D

Intro:

Gtr 1 Palm Mutes.     Gtr 2 Distorted ( The Riff )
               ( The 3 @ The End Is Sometimes Played More )    Repeat X2
e|--------------------------------------------------------------------------|
B|--------------------------------------------------------------------------|
G|-2--5--4--2--0-2----------------------------------------------------------|
D|-2222222222--2222----------------------------------------33---------------|
A|-----------00-----------9/--5202~--5202~--025202~--5202~-33---------------|
D|------------------------9/--5202~--5202~--025202~--5202~-33---------------|

Verse:                                   Second Time: In The Beginning Add
  Em  Bm(addb6)  C      G(sus2) D/F#                  Em
e|--------------------------------------------------------------------------|
B|----------------1---------------------------------------------------------|
G|-------0-------0-0-------2-----2---------------------0---0----------------|
D|-2----4-4---------0-----0-----0-0-------------------2-2-------------------|
A|-2---2---2---3-------------------------------------2---2------------------|
D|-2--------------------5-----4---------------------2-----------------------|

Pre-Chorus:
    Em(add2)     D(add4)       A(13)/C#         C(add#4)  Gtr 2: Palm Mutes
e|--------------------------------------------------------------------------|
B|--------------------------------------------------------------------------|
G|---0----0-------0----0-------0-----0-0---------0---2----------------------|
D|--4-4----4-----4-4----4-----4-4-----4---------4-4-4-----------------------|
A|-7---7--------5---5--------4---4-------------3---3-------7...5...4...3...-|
D|--------------------------------------------------------------------------|

              Hold  555 Just A Little Bit Longer   (Repeat x2 w/variation)
   Em  C    G      D    Em   EM                        Gtr 2
e|-----------------------------------------------0------3---3---3-53-22-----|
B|------------------------------------------------0--------------3--3-------|
G|-4---5-------------------------------------------4/5----5---5-------------|
D|-2---5----5------0----22--2222---0--22--5--0------------------------------|
A|-2---3...-5------0----22--2222---0--22--5--0------------------------------|
D|-2...-----5....--0...-22--2222--00--22--5--0------------------------------|

Pre-Solo/Bridge:
                  x2 Then...           Repeat x2
e|--------------------------------------------------------------------------|
B|-------------------------0------------------------------------------------|
G|------------------------2-2-----------------------------------------------|
D|-----33333-------------3----------------33--------------33----------------|
A|-------------------------------0-0-0222----0002-2320222----005500232-0222-|
D|-022-------02-2300222----------0-0-0222----0002-2320222----005500232-0222-|

e|--------------------------------------------------------------------------|
B|--------------------------------------------------------------------------|
G|--------------------------------------------------------------------------|
D|-33---------------33------------------------------------------------------|
A|----0023-2300222-----005-00230--------------------------------------------|
D|----0023-2320222-----005-00230--------------------------------------------|

Solo: w/wah effect                                           (Slow Bend)
e|-----------------------------------------------------7--------10~---------|
B|--8---------5--------10~~~-8~--108787575-5--------810-9~--979-------------|
G|----9797575--75--575--------------------7-75---579------------------------|
D|---------------7-----------------------------57---------------------------|
A|--------------------------------------------------------------------------|
D|--------------------------------------------------------------------------|


| /  slide up
| \  slide down
| ~  vibrato

============================================================================
Добавлено: 28.06.2012
Другие материалы по этой песне:
  • Аккорды и текст

Страница создана 28.06.2012
http://primanota.ru/decyfer-down/wasting-away-chords.htm
Привет, Гость.
Предлагаем пройти революционный курс по гитаре.
Подарок от PrimaNota.Ru, забирай!