PrimaNota.ru - самый крупный в мире бесплатный архив песенных текстов, аккордов, табулатур и нот


Decyfer Down - Walking Dead - текст песни, таба, видео

Регистрация Запомнить меня
Войти через:  Facebook Google Twitter Vk Yandex Mail.ru

Decyfer Down - Walking Dead - текст песни, таба, видео

Печатать
Просмотров: 196
Уроки эстрадного вокала в Санкт-Петербурге
Decyfer Down (www.decyferdown.com)
Walking Dead
Tabbed by U B the band
Tuning Bb F Bb Eb Ab C

Legend:
~-let ring                             *-harmonic
\-slide down                            pm-pa;m mute

Intro Guitar 1: 00:00
 C|----------------------------------------------------------------------------|
Ab|----------------------------------------------------------------------------|
Eb|----------------------------------------------------------------------------|
Bb|--2-------------------------------------------------------------------------|
 F|--2-------------------------------------------------------------------------|
Bb|--2-------------------------------------------------------------------------|

Guitar 1: 00:05
 C|----------------------------------------------------------------------------|
Ab|----------------------------------------------------------------------------|
Eb|------------5*--------------------------------------5*----------------------|
Bb|--2--0--5\-----5*-7*--2--0--5\--00-0--5*--2--0--5\-----5*-7*--3-------------|
 F|--2--0--5\------------2--0--5\--00-0------2--0--5\------------3-------------|
Bb|--2--0--5\------------2--0--5\--00-0------2--0--5\------------3-------------|
                                   pmpm

Verse 1: Guitar 1 00:17
 C|----------------------------------------------------------------------------|
Ab|----------------------------------------------------------------------------|
Eb|----------------------------------------------------------------------------|
Bb|--2--2--------x-x--x-5--5--------x-x--x-2--2--------x-x--x-5--5-------------|
 F|--2--2--------x-x--x-5--5--------x-x--x-2--2--------x-x--x-5--5-------------|
Bb|--2--2--------x-x--x-5--5--------x-x--x-2--2--------x-x--x-5--5-------------|

Guitar 2 (clean) 00:17
 C|------3---3---------------------------------3---3---------------------------|
Ab|----4-------4--------4-------4------------4-------4--------4-------4--------|
Eb|--4-----4-----4----4---4-------4--------4------4----4----4---4-------4------|
Bb|-----------------5-------5-------2---------------------5-------5-------2----|
 F|----------------------------------------------------------------------------|
Bb|----------------------------------------------------------------------------|

Verse 1 Guitar 1
 C|----------------------------------------------------------------------------|
Ab|----------------------------------------------------------------------------|
Eb|----------------------------------------------------------------------------|
Bb|--x-2--2--------x-x--x-5--5--------x-x--x-2--2--------x-x--x3-3-33-3h5-3\2--|
 F|--x-2--2--------x-x--x-5--5--------x-x--x-2--2--------x-x--x3-3-33-3h5-3\2--|
Bb|--x-2--2--------x-x--x-5--5--------x-x--x-2--2--------x-x--x3-3-33-3h5-3\2--|

Verse 1 Guitar 2
 C|--------3---3---------------------------------3---3-------------------------|
Ab|------4-------4--------4-------4------------4-------4-----------------------|
Eb|----4-----4-----4----4---4-------4--------4-----4-----4---------------------|
Bb|-------------------5-------5-------2----------------------------------------|
 F|----------------------------------------------------------------------------|
Bb|----------------------------------------------------------------------------|

Chorus: 00:41
 C|----------------------------------------------------------------------------|
Ab|----------------------------------------------------------------------------|
Eb|----------------------------------------------------------------------------|
Bb|--0----------------3----------------8----------------5----------------------|
 F|--0----------------3----------------8----------------5----------------------|
Bb|--0----------------3----------------8----------------5----------------------|

 C|----------------------------------------------------------------------------|
Ab|----------------------------------------------------------------------------|
Eb|----------------------------------------------------------------------------|
Bb|--0----------------10---------------8----------------5----------------------|
 F|--0----------------10---------------8----------------5----------------------|
Bb|--0----------------10---------------8----------------5----------------------|

 C|----------------------------------------------------------------------------|
Ab|----------------------------------------------------------------------------|
Eb|----------------------------------------------------------------------------|
Bb|--0----------------3----------------10---------------5----------------------|
 F|--0----------------3----------------10---------------5----------------------|
Bb|--0----------------3----------------10---------------5----------------------|

 C|----------------------------------------------------------------------------|
Ab|----------------------------------------------------------------------------|
Eb|----------------------------------------------------------------------------|
Bb|--0----------------10----------------8---------------5----------------------|
 F|--0----------------10----------------8---------------5----------------------|
Bb|--0----------------10----------------8---------------5----------------------|

Guitar 1: 01:04
 C|----------------------------------------------------------------------------|
Ab|----------------------------------------------------------------------------|
Eb|------------5*--------------------------------------5*----------------------|
Bb|--2--0--5\-----5*-7*--2--0--5\--00-0--5*--2--0--5\-----5*-7*--3-------------|
 F|--2--0--5\------------2--0--5\--00-0------2--0--5\------------3-------------|
Bb|--2--0--5\------------2--0--5\--00-0------2--0--5\------------3-------------|
                                   pmpm

Verse 2: Guitar 1 01:16
 C|----------------------------------------------------------------------------|
Ab|----------------------------------------------------------------------------|
Eb|----------------------------------------------------------------------------|
Bb|--2--2--------x-x--x-5--5--------x-x--x-2--2--------x-x--x-5--5-------------|
 F|--2--2--------x-x--x-5--5--------x-x--x-2--2--------x-x--x-5--5-------------|
Bb|--2--2--------x-x--x-5--5--------x-x--x-2--2--------x-x--x-5--5-------------|

Verse 2 Guitar 2 (clean) 01:16
 C|------3---3---------------------------------3---3---------------------------|
Ab|----4-------4--------4-------4------------4-------4--------4-------4--------|
Eb|--4-----4-----4----4---4-------4--------4------4----4----4---4-------4------|
Bb|-----------------5-------5-------2---------------------5-------5-------2----|
 F|----------------------------------------------------------------------------|
Bb|----------------------------------------------------------------------------|

Verse 2 Guitar 1
 C|----------------------------------------------------------------------------|
Ab|----------------------------------------------------------------------------|
Eb|----------------------------------------------------------------------------|
Bb|--x-2--2--------x-x--x-5--5--------x-x--x-2--2--------x-x--x3-3-33-3h5-3\2--|
 F|--x-2--2--------x-x--x-5--5--------x-x--x-2--2--------x-x--x3-3-33-3h5-3\2--|
Bb|--x-2--2--------x-x--x-5--5--------x-x--x-2--2--------x-x--x3-3-33-3h5-3\2--|

Verse 2 Guitar 2
 C|--------3---3---------------------------------3---3-------------------------|
Ab|------4-------4--------4-------4------------4-------4-----------------------|
Eb|----4-----4-----4----4---4-------4--------4-----4-----4---9\7-5h7p5h7p5h7p5-|
Bb|-------------------5-------5-------2----------------------------------------|
 F|----------------------------------------------------------------------------|
Bb|----------------------------------------------------------------------------|

Chorus: 01:42
 C|----------------------------------------------------------------------------|
Ab|----------------------------------------------------------------------------|
Eb|----------------------------------------------------------------------------|
Bb|--0----------------3----------------8----------------5----------------------|
 F|--0----------------3----------------8----------------5----------------------|
Bb|--0----------------3----------------8----------------5----------------------|

 C|----------------------------------------------------------------------------|
Ab|----------------------------------------------------------------------------|
Eb|----------------------------------------------------------------------------|
Bb|--0----------------10---------------8----------------5----------------------|
 F|--0----------------10---------------8----------------5----------------------|
Bb|--0----------------10---------------8----------------5----------------------|

 C|----------------------------------------------------------------------------|
Ab|----------------------------------------------------------------------------|
Eb|----------------------------------------------------------------------------|
Bb|--0----------------3----------------10---------------5----------------------|
 F|--0----------------3----------------10---------------5----------------------|
Bb|--0----------------3----------------10---------------5----------------------|

 C|----------------------------------------------------------------------------|
Ab|----------------------------------------------------------------------------|
Eb|----------------------------------------------------------------------------|
Bb|--0----------------10----------------2----0----3----------------------------|
 F|--0----------------10----------------2----0----3----------------------------|
Bb|--0----------------10----------------2----0----3----------------------------|

Bridge: 02:07 (clean)
 C|----------------------------------------------------------------------------|
Ab|----------------------------------------------------------------------------|
Eb|--------5--7----------------4-------------7------5----5-----5-----5--5-5-55-|
Bb|-----5--------5----------2-------------5------3----3-----3-----5------------|
 F|--3-------------------2-------------5---------------------------------------|
Bb|-------------------2-------------5------------------------------------------|

Guitar 2 02:13 (palm muted)
 C|----------------------------------------------------------------------------|
Ab|----------------------------------------------------------------------------|
Eb|----------------------------------------------------------------------------|
Bb|----------------------------------------------------------------------------|
 F|---------------------------------------------88888888-10101010-x-x--x--x-x--|
Bb|---------------------------------------------88888888-10101010-x-x--x--x-x--|

Solo: 02:19 Guitar 2 They use a pedal, just bend the strings a little bit.
 C|----------------------------------------------------------------------------|
Ab|------------------------------------------------------------7b--7h9p7-------|
Eb|------5h7b--7-5--------------------7\---------5h7b-7-5---5------------7b--7\|
Bb|--5h7------------7--5-5b-5\3b--3/5----3/5-5h7----------7------------------5\|
 F|----------------------------------------------------------------------------|
Bb|----------------------------------------------------------------------------|

Guitar 1 for solo: 02:19
 C|----------------------------------------------------------------------------|
Ab|----------------------------------------------------------------------------|
Eb|----------------------------------------------------------------------------|
Bb|--0------0-------10-------10----------8--------8------------5-5-5-5-5-5-5---|
 F|--0------0-------10-------10----------8--------8------------5-5-5-5-5-5-5---|
Bb|--0------0-------10-------10----------8--------8------------5-5-5-5-5-5-5---|

Chorus: 02:32  *Play 5 times*
 C|----------------------------------------------------------------------------|
Ab|----------------------------------------------------------------------------|
Eb|------------------------------------7---------------------------------------|
Bb|--2----------------5----------------7----------------7----------7p5---------|
 F|--2----------------5----------------5----------------7----------7p5---------|
Bb|--2----------------5---------------------------------7----------7p5---------|
                                                                               |
 C|----------------------------------------------------------------------------|
Ab|----------------------------------------------------------------------------|
Eb|------------------------------------7---------------------------------------|
Bb|--2----------------5----------------7----------------3h5--------5p3---------|
 F|--2----------------5----------------5----------------3h5--------5p3---------|
Bb|--2----------------5---------------------------------3h5--------5p3---------|

Guitar 1: 03:19
 C|----------------------------------------------------------------------------|
Ab|----------------------------------------------------------------------------|
Eb|------------5*--------------------------------------5*----------------------|
Bb|--2--0--5\-----5*-7*--2--0--5\--00-0--5*--2--0--5\-----5*-7*--3-------------|
 F|--2--0--5\------------2--0--5\--00-0------2--0--5\------------3-------------|
Bb|--2--0--5\------------2--0--5\--00-0------2--0--5\------------3-------------|
                                   pmpm

I'll update the rest soon.
Добавлено: 06.04.2012
Другие материалы по этой песне:

Страница создана 19.03.2012
http://primanota.ru/decyfer-down/walking-dead-chords.htm
Привет, Гость.
Предлагаем пройти революционный курс по гитаре.
Подарок от PrimaNota.Ru, забирай!