PrimaNota.ru - самый крупный в мире бесплатный архив песенных текстов, аккордов, табулатур и нот


Decyfer Down - No Longer - текст песни, таба, бас-таба, видео

Регистрация Запомнить меня
Войти через:  Facebook Google Twitter Vk Yandex Mail.ru

Decyfer Down - No Longer - текст песни, таба, бас-таба, видео

Печатать
Просмотров: 256
Уроки эстрадного вокала в Санкт-Петербурге
Decyfer Down                       *UPDATE 5/14/08*
No Longer
Tabbed by U B the band
Tuning Bb F Bb Eb Ab C

Legend
b-bend           h-hammer on
~-let ring      ( )-optional
/-slide up       x-scratch
p-pull off


Intro/Verse: Guitar 1 (Chris) 00:00              ---|
 F|------------------------------------------------||
 C|------------------------------------------------||
Ab|------------------------------------------------||
Eb|-------------9----------------------------------||
Bb|----10---9-------9b------0-------5~~~~~~~~/7--7-||
 F|--0----0---0---0-------0---0---3---3-3-3~~/5-5--||play
Bb|---------------------0-------3-----------3/5----||
                                                    |3
 F|--------------------------------------------0---||
 C|-------------------------------------------(5)--||times
Ab|------------------------------------------------||
Eb|-------------9--------------------12-------7----||
Bb|----10---9--------12p10-9h10--------------5-----||
 F|--0----0---0----0---------------10--10----------||
Bb|------------------------------10--------5-------||
                                                 ---|
Chorus: 00:35
 C|-------------------------------------------------|
Ab|-------------------------------------------------|
Eb|-------------------------------------------------|
Bb|--x-x--x-----------------------------------------|
 F|--x-x--x---3--3--3-3--3-7--7--7-7-5--5-55-0-0h2--|
Bb|--x-x--x---3--3--3-3--3-7--7--7-7-5--5-55-0-0h2--|

 C|--------------------------------------|
Ab|--------------------------------------|
Eb|--------------------------4b-p2--0----|
Bb|--------------------------------------|
 F|--3--3--3-3--3-7--7--5--5-------------|
Bb|--3--3--3-3--3-7--7--5--5-------------|

 C|------------------------------------------|
Ab|------------------------------------------|
Eb|------------------------------------------|
Bb|------------------------------------------|
 F|--3--3--3-3--3-7--7--7-7-5--5--5-5-0-0h2--|
Bb|--3--3--3-3--3-7--7--7-7-5--5--5-5-0-0h2--|

 C|------------------------|
Ab|------------------------|
Eb|------------------------|
Bb|------------------------|
 F|--3--3--3-3--3-7--7--5--|
Bb|--3--3--3-3--3-7--7--5--|

Verse: Guitar 1 (Chris) 01:00                     ---|
 F|-------------------------------------------------||
 C|-------------------------------------------------||
Ab|-------------------------------------------------||
Eb|-------------------------------------------------||
Bb|----10---9---10---9b------0-------5~~~~~~~/7--7--||
 F|--0----0---0----0-------0---0---3--3-3-3~~/5-5---||play
Bb|----------------------0-------3----------3/5-----||
                                                     |2
 F|--------------------------------------------0----||
 C|-------------------------------------------(5)---||times
Ab|-------------------------------------------------||
Eb|----------------------------------12-------7-----||
Bb|----10---9---10---12p10-9h10--------------5------||
 F|--0----0---0----0---------------10--10-----------||
Bb|------------------------------10--------5--------||
                                                  ---|
Chorus: 01:22
 C|-------------------------------------------------|
Ab|-------------------------------------------------|
Eb|-------------------------------------------------|
Bb|--x-x--x-----------------------------------------|
 F|--x-x--x---3--3--3-3--3-7--7--7-7-5--5-55-0-0h2--|
Bb|--x-x--x---3--3--3-3--3-7--7--7-7-5--5-55-0-0h2--|

 C|--------------------------------------|
Ab|--------------------------------------|
Eb|--------------------------4b-p2--0----|
Bb|--------------------------------------|
 F|--3--3--3-3--3-7--7--5--5-------------|
Bb|--3--3--3-3--3-7--7--5--5-------------|

 C|------------------------------------------|
Ab|------------------------------------------|
Eb|------------------------------------------|
Bb|------------------------------------------|
 F|--3--3--3-3--3-7--7--7-7-5--5--5-5-0-0h2--|
Bb|--3--3--3-3--3-7--7--7-7-5--5--5-5-0-0h2--|

 C|------------------------|
Ab|------------------------|
Eb|------------------------|
Bb|------------------------|
 F|--3--3--3-3--3-7--7--5--|
Bb|--3--3--3-3--3-7--7--5--|

Bridge: Guitar 1 01:48
 C|---------------------------------|
Ab|---------------------------------|
Eb|---------------------------------|
Bb|---------------------------------|
 F|--7--5--0--xx0--7--3h5-3xx3x3h5--|
Bb|--7--5--0--xx0--7--3h5-3xx3x3h5--|

 C|--------------------------|
Ab|--------------------------|
Eb|--------------------------|
Bb|--------------------------|
 F|--7--5--0--xx0--7--3--5---|
Bb|--7--5--0--xx0--7--3--5---|

Solo: I'll add it within a week (todays date 5/14/08)

Bridge continued: 02:03 (clean)
 C|-----------------------|
Ab|-----------------------|
Eb|--5------9------7------|
Bb|--3------7------5------|
 F|--3------7------5------|
Bb|-(3)----(7)----(5)-----|

Chorus: 02:09
 C|----------------------------------------|
Ab|----------------------------------------|
Eb|----------------------------------------|
Bb|----------------------------------------|
 F|--3--3--3-3--3-7--7--7-7-5--5-55-0-0h2--|
Bb|--3--3--3-3--3-7--7--7-7-5--5-55-0-0h2--|

 C|--------------------------------------|
Ab|--------------------------------------|
Eb|--------------------------4b-p2--0----|
Bb|--------------------------------------|
 F|--3--3--3-3--3-7--7--5--5-------------|
Bb|--3--3--3-3--3-7--7--5--5-------------|

 C|------------------------------------------|
Ab|------------------------------------------|
Eb|------------------------------------------|
Bb|------------------------------------------|
 F|--3--3--3-3--3-7--7--7-7-5--5--5-5-0-0h2--|
Bb|--3--3--3-3--3-7--7--7-7-5--5--5-5-0-0h2--|

 C|------------------------|
Ab|------------------------|
Eb|------------------------|
Bb|------------------------|
 F|--3--3--3-3--3-7--7--5--|
Bb|--3--3--3-3--3-7--7--5--|

Outro Solo: Guitar 1 02:33
 F|-----------------------------------------------------------------|
 C|-----------------------------------------------------------------|
Ab|-------------------------------7h9p7---7-------------------------|
Eb|--2-4/5-7-5-4-4h5-4---------3h5------9--9-7b~~7\5-55\4-44\2-2/4--|
Bb|-------------------5--2/5-77-------------------------------------|
 F|-----------------------------------------------------------------|
Bb|-----------------------------------------------------------------|

 F|------------------------------------------------------|
 C|------------------------------------------------------|
Ab|------------------------------------------------------|
Eb|------------------------------------------------------|
Bb|--5p4-5-7p5-4-5p4--5p4-5-7p5-4-5p4--5p4-5-7p5-4-5p4---|
 F|---------------------------------------------------5--|
Bb|------------------------------------------------------|

 F|--------------------------------------|
 C|----------11b--11b--8--8h10p8--7~~~~--|
Ab|--------------------------------------|
Eb|--------------------------------------|
Bb|--2/5-77------------------------------|
 F|--------------------------------------|
Bb|--------------------------------------|

Outro: 02:57
 C|-------------------------|
Ab|-------------------------|
Eb|--5-------9-------7------|
Bb|--3-------7-------5------|
 F|--3-------7-------5------|
Bb|-(3)-----(7)-----(5)-----|

I'll clean it up soon. -U B the band
Добавлено: 25.02.2012
Другие материалы по этой песне:
  • Аккорды и текст

Страница создана 25.02.2012
http://primanota.ru/decyfer-down/no-longer-chords.htm
Привет, Гость.
Предлагаем пройти революционный курс по гитаре.
Подарок от PrimaNota.Ru, забирай!