PrimaNota.ru - самый крупный в мире бесплатный архив песенных текстов, аккордов, табулатур и нот


Decyfer Down - Life Again - текст песни, таба, видео

Регистрация Запомнить меня
Войти через:  Facebook Google Twitter Vk Yandex Mail.ru

Decyfer Down - Life Again - текст песни, таба, видео

Печатать
Просмотров: 274
Decyfer Down (www.decyferdown.com)        UPDATED 12/2/2009
Life Again
Tabbed by U B the band
Tuning(s) Guitar 1 - Bb F Bb Eb Ab C F (Chris)
          Guitar 2 - Bb F Bb Eb Ab C  (Brandon)

Legend:
p-pull off                  /-slide up                *-harmonic
h-hammer on                 pm-palm mute              x-scratch
b-bend
\-slide down

Chris uses a 7 string and Brandon uses a 6 string (tunings are the same).

Intro: Guitar 1 (Chris) 00:00
 F|-------------------------------------------------|
 C|-------------------------------------------------|
Ab|-------------------------------------------------|
Eb|-------------------------------------------------|
Bb|-------------------------------------------------|
 F|--5--3--6p5--3h5--6p5--3---5--3--6p5--3h5--1-----|
Bb|--5--3--6p5--3h5--6p5--3---5--3--6p5--3h5--1-----|
                                                    |
Intro: Guitar 2 (Brandon) 00:03                     |
 C|-------------------------------------3-----------|
Ab|-------------------------------------------0-----|
Eb|-------------------------------------------------|
Bb|-------------------------------------------------|
 F|-------------------------------------------------|
Bb|-------------------------------------------------|

Guitar 1: 00:05
 F|-------------------------------------------------|
 C|-------------------------------------------------|
Ab|-------------------------------------------------|
Eb|-------------------------------------------------|
Bb|-------------------------------------------------|
 F|--5--3--6p5--3h5--6p5--8----8--8--8--8--8--8-----|
Bb|--5--3--6p5--3h5--6p5--8----8--8--8--8--8--8-----|
                                                    |
Intro: Guitar 2 (Brandon) 00:05                     |
 C|----------------------6b----b--b--b--b--b--b-----|
Ab|-------------------------------------------------|
Eb|--3----------------------------------------------|
Bb|-------------------------------------------------|
 F|-------------------------------------------------|
Bb|-------------------------------------------------|

Guitars 1 and 2: 00:10
 C|-------------------------------------------------|
Ab|-------------------------------------------------|
Eb|-------------------------------------------------|
Bb|--5--3--6p5--3h5--6p5--3---5--3--6p5--3h5--1-----|
 F|--5--3--6p5--3h5--6p5--3---5--3--6p5--3h5--1-----|
Bb|--5--3--6p5--3h5--6p5--3---5--3--6p5--3h5--1-----|

Guitars 1 and 2: 00:15
 C|-------------------------------------------------|
Ab|-------------------------------------------------|
Eb|-------------------------------------------------|
Bb|--5--3--6p5--3h5--6p5--8----8--8--8--8--8--8-----|
 F|--5--3--6p5--3h5--6p5--8----8--8--8--8--8--8-----|
Bb|--5--3--6p5--3h5--6p5--8----8--8--8--8--8--8-----|

Verse 1: Guitar 1 00:20
 F|-------------------------------------------------|
 C|-------------------------------------------------|
Ab|-------------------------------------------------|
Eb|-------------------------------------------------|
Bb|-------------------------------------------------|
 F|--3-/5-5-5-5-5--1-1-1-1-1-/3-3-3-3-3--0-0--0-0-0-|
Bb|--3-/5-5-5-5-5--1-1-1-1-1-/3-3-3-3-3--0-0--0-0-0-|
                                                    |
Guitar 2: 00:20                                     |
 C|-------------------------------------------------|
Ab|----------------5--------------------------------|
Eb|----------------------7--------------------------|
Bb|--\5---------------------------------------------|
 F|-------------------------------------------------|
Bb|-------------------------------------------------|

Guitar 1: 00:25
 F|-------------------------------------------------|
 C|-------------------------------------------------|
Ab|-------------------------------------------------|
Eb|-------------------------------------------------|
Bb|-------------------------------------------------|
 F|--3-/5-5-5-5-5--1-1-1-1-1-/3-3-3-3-3--3-3--1h3---|
Bb|--3-/5-5-5-5-5--1-1-1-1-1-/3-3-3-3-3--3-3-----h3-|
                                                    |
Guitar 2: 00:25                                     |
 C|-----------6--8--6-------------------------------|
Ab|-------------------------0-----------------------|
Eb|-----7--8-------------7--------------------------|
Bb|-------------------------------------------------|
 F|--8----------------------------------------------|
Bb|-------------------------------------------------|

Guitar 1: 00:31
 F|-------------------------------------------------|
 C|-------------------------------------------------|
Ab|-------------------------------------------------|
Eb|-------------------------------------------------|
Bb|-------------------------------------------------|
 F|--3-/5-5-5-5-5--1-1-1-1-1-/3-3-3-3-3--0-0--0-0-0-|
Bb|--3-/5-5-5-5-5--1-1-1-1-1-/3-3-3-3-3--0-0--0-0-0-|
                                                    |
Guitar 2: 00:31                                     |
 C|-------10----------------------------------------|
Ab|-----------10--9---------------------------------|
Eb|--0---------------7------------------------------|
Bb|-------------------------------------------------|
 F|-------------------------------------------------|
Bb|-------------------------------------------------|

Guitar 1: 00:36
 F|-------------------------------------------------|
 C|-------------------------------------------------|
Ab|-------------------------------------------------|
Eb|-------------------------------------------------|
Bb|-------------------------------------------------|
 F|--3-/5-5-5-5-5--1-1-1-1-1-/3-3-3-3-3--3-3--------|
Bb|--3-/5-5-5-5-5--1-1-1-1-1-/3-3-3-3-3--3-3--------|
                                                    |
Guitar 2: 00:36                                     |
 C|-----------6--8--6-------------------------------|
Ab|-------------------------------------------------|
Eb|-----7--8-------------7--------------------------|
Bb|-------------------------------------------------|
 F|--8----------------------------------------------|
Bb|-------------------------------------------------|

Pre-Chorus: Guitar 1 00:41
 F|--------------------------------------------------------------------|
 C|--------------------------------------------------------------------|
Ab|--------------------------------------------------------------------|
Eb|--------------------------------------------------------------------|
Bb|-----------------------------5*-------------------------------------|
 F|------8-6-5h6p5-----8-6-5h6p5-------8-6-5h6p5-----8-6-5h6xx---------|
Bb|--555---6-5h6p5-555---6-5h6p5---555---6-5h6p5-555---6-5h6xx---------|
                                                                       |
Pre-Chorus: Guitar 2                                                   |
 C|--------------------------------------------------------------------|
Ab|------------------------------------------------------------5*------|
Eb|-----------------------5*--5*---------------------------5*----5*----|
Bb|---------5*-5*-------------------------5*--5*-------5*5*--5*----5*--|
 F|--------------------------------------------------------------------|
Bb|--555-----------555-------------555-----------555-------------------|

Chorus: Both Guitars 00:51
 C|-----------------------------------------------------------------|
Ab|-----------------------------------------------------------------|
Eb|----------------------------------------3--2---------------------|
Bb|-------7h8p7-7h8-------------------5--5-------3--3-3-3-3-3-3-3---|
 F|--5--5-----------1--1-1-1-1-1-1-1--3--3-------3--3-3-3-3-3-3-3---|
Bb|--5--5-----------1--1-1-1-1-1-1-1-------------3--3-3-3-3-3-3-3---|

 C|-----------------------------------------------------------------|
Ab|-----------------------------------------------------------------|
Eb|----------------------------------------3--2---------------------|
Bb|-----------------------------------5--5-------5--5-5-5-5-5-5-5---|
 F|--5--5-5-5-5-5---1--1-1-1-1-1-1-1--3--3----------3-3-3-3-3-3-3---|
Bb|--5--5-5-5-5-5---1--1-1-1-1-1-1-1--------------------------------|

Post Chorus: Guitars 1 and 2 01:12
 C|-------------------------------------------------|
Ab|-------------------------------------------------|
Eb|-------------------------------------------------|
Bb|--5--3--6h5--3h5--6p5--3---5--3--6p5--3h5--1-----|
 F|--5--3--6p5--3h5--6p5--3---5--3--6p5--3h5--1-----|
Bb|--5--3--6p5--3h5--6p5--3---5--3--6p5--3h5--1-----|

Guitars 1 and 2: 01:17
 C|-------------------------------------------------|
Ab|-------------------------------------------------|
Eb|-------------------------------------------------|
Bb|--5--3--6p5--3h5--6p5--8----8--8--8--8--8--8-----|
 F|--5--3--6p5--3h5--6p5--8----8--8--8--8--8--8-----|
Bb|--5--3--6p5--3h5--6p5--8----8--8--8--8--8--8-----|

Verse 2: Guitar 1 01:22
 F|-------------------------------------------------|
 C|-------------------------------------------------|
Ab|-------------------------------------------------|
Eb|-------------------------------------------------|
Bb|-------------------------------------------------|
 F|--3-/5-5-5-5-5--1-1-1-1-1-/3-3-3-3-3--0-0--0-0-0-|
Bb|--3-/5-5-5-5-5--1-1-1-1-1-/3-3-3-3-3--0-0--0-0-0-|
                                                    |
Guitar 2: 01:22                                     |
 C|-------------------------------------------------|
Ab|----------------5--------------------------------|
Eb|----------------------7--------------------------|
Bb|--\5---------------------------------------------|
 F|-------------------------------------------------|
Bb|-------------------------------------------------|

Guitar 1: 01:27
 F|-------------------------------------------------|
 C|-------------------------------------------------|
Ab|-------------------------------------------------|
Eb|-------------------------------------------------|
Bb|-------------------------------------------------|
 F|--3-/5-5-5-5-5--1-1-1-1-1-/3-3-3-3-3--3-3--1h3---|
Bb|--3-/5-5-5-5-5--1-1-1-1-1-/3-3-3-3-3--3-3-----h3-|
                                                    |
Guitar 2: 01:27                                     |
 C|-----------6--8--6-------------------------------|
Ab|-------------------------0-----------------------|
Eb|-----7--8-------------7--------------------------|
Bb|-------------------------------------------------|
 F|--8----------------------------------------------|
Bb|-------------------------------------------------|

Guitar 1: 01:33
 F|-------------------------------------------------|
 C|-------------------------------------------------|
Ab|-------------------------------------------------|
Eb|-------------------------------------------------|
Bb|-------------------------------------------------|
 F|--3-/5-5-5-5-5--1-1-1-1-1-/3-3-3-3-3--0-0--0-0-0-|
Bb|--3-/5-5-5-5-5--1-1-1-1-1-/3-3-3-3-3--0-0--0-0-0-|
                                                    |
Guitar 2: 01:33                                     |
 C|-------10----------------------------------------|
Ab|-----------10--9---------------------------------|
Eb|--0---------------7------------------------------|
Bb|-------------------------------------------------|
 F|-------------------------------------------------|
Bb|-------------------------------------------------|

Guitar 1: 01:38
 F|-------------------------------------------------|
 C|-------------------------------------------------|
Ab|-------------------------------------------------|
Eb|-------------------------------------------------|
Bb|-------------------------------------------------|
 F|--3-/5-5-5-5-5--1-1-1-1-1-/3-3-3-3-3--3-3--------|
Bb|--3-/5-5-5-5-5--1-1-1-1-1-/3-3-3-3-3--3-3--------|
                                                    |
Guitar 2: 01:38                                     |
 C|-----------6--8--6-------------------------------|
Ab|-------------------------------------------------|
Eb|-----7--8-------------7--------------------------|
Bb|-------------------------------------------------|
 F|--8----------------------------------------------|
Bb|-------------------------------------------------|

Chorus: Both Guitars 01:43
 C|-----------------------------------------------------------------|
Ab|-----------------------------------------------------------------|
Eb|----------------------------------------3--2---------------------|
Bb|-------7h8p7-7h8-------------------5--5-------3--3-3-3-3-3-3-3---|
 F|--5--5-----------1--1-1-1-1-1-1-1--3--3-------3--3-3-3-3-3-3-3---|
Bb|--5--5-----------1--1-1-1-1-1-1-1-------------3--3-3-3-3-3-3-3---|

 C|-----------------------------------------------------------------|
Ab|-----------------------------------------------------------------|
Eb|----------------------------------------3--2---------------------|
Bb|-----------------------------------5--5-------5--5-5-5-5-5-5-5---|
 F|--5--5-5-5-5-5---1--1-1-1-1-1-1-1--3--3----------3-3-3-3-3-3-3---|
Bb|--5--5-5-5-5-5---1--1-1-1-1-1-1-1--------------------------------|

Bridge: Guitar 1 02:04
 F|-------------------------------------------------|
 C|-------------------------------------------------|
Ab|-------------------------------------------------|
Eb|-------------------------------------------------|
Bb|-------------------------------------------------|
 F|-------------------------------------------------|
Bb|--6----5----3----5----6-p5---5---3----0--0-------|
                                         pmpm
02:09
 F|-------------------------------------------------|
 C|-------------------------------------------------|
Ab|-------------------------------------------------|
Eb|-------------------------------------------------|
Bb|-------------------------------------------------|
 F|------------------------------------10-10-10-10--|
Bb|--6----5----3----5----6-p5---5---3--10-10-10-10--|

Both guitars: 02:14
 C|-------------------------------------------------|
Ab|-------------------------------------------------|
Eb|-------------------------------------------------|
Bb|-------------------------------------------------|
 F|--6----5----3----5----6-p5---5---3--0-0--x-x-x---|
Bb|--6----5----3----5----6-p5---5---3--0-0--x-x-x---|x2

Solo: Guitar 1 02:26
 F|---------------------------------------------------------|
 C|---------------5--6---8--10--13--------------------------|
Ab|--9b--9b9b-----7b-8b-10b-12b-15b---14h16p14-14-----------|
Eb|-----------12----------------------------------17-15h17--|
Bb|---------------------------------------------------------|
 F|---------------------------------------------------------|
Bb|---------------------------------------------------------|
                  ^-full step bends (Ab string only)

02:34
 F|---------------------------------------------------------|
 C|---------------------------------------------------------|
Ab|--------5----9h10p9---9-9h10p9---9-9h10p9---9-9h10p9-----|
Eb|-----5-------------12---------12---------12---------12---|
Bb|--3------------------------------------------------------|
 F|---------------------------------------------------------|
Bb|---------------------------------------------------------|

02:38
 F|---------------------------------------------------------|
 C|---------------------------------------------------------|
Ab|--10h12p10---10-10h12p10---10-10h12p10---10-10h12p10-----|
Eb|----------12------------12------------12------------12---|
Bb|---------------------------------------------------------|
 F|---------------------------------------------------------|
Bb|---------------------------------------------------------|

02:41
 F|---------------------------------------------------------|
 C|------------------------------13----------13---15--------|
Ab|--12h14p12---12-12h14p12---12----14p12--12---14----------|
Eb|----------15------------15-------------------------------|
Bb|---------------------------------------------------------|
 F|---------------------------------------------------------|
Bb|---------------------------------------------------------|

Guitar during solo: Guitar 2 02:25
 C|-----------------------------------------------------------------|
Ab|-----------------------------------------------------------------|
Eb|----------------------------------------3--2---------------------|
Bb|-------7h8p7-7h8-------------------5--5-------3--3-3-3-3-3-3-3---|
 F|--5--5-----------1--1-1-1-1-1-1-1--3--3-------3--3-3-3-3-3-3-3---|
Bb|--5--5-----------1--1-1-1-1-1-1-1-------------3--3-3-3-3-3-3-3---|

 C|---------------------------------------------------------|
Ab|---------------------------------------------------------|
Eb|----------------------------------------3--2-------------|
Bb|-----------------------------------5--5-------5----------|
 F|--5--5-5-5-5-5---1--1-1-1-1-1-1-1--3--3------------------|
Bb|--5--5-5-5-5-5---1--1-1-1-1-1-1-1------------------------|

Chorus: Both Guitars 02:46/03:07 play entire chorus 2 times
 C|-----------------------------------------------------------------|
Ab|-----------------------------------------------------------------|
Eb|----------------------------------------3--2---------------------|
Bb|-------7h8p7-7h8-------------------5--5-------3--3-3-3-3-3-3-3---|
 F|--5--5-----------1--1-1-1-1-1-1-1--3--3-------3--3-3-3-3-3-3-3---|
Bb|--5--5-----------1--1-1-1-1-1-1-1-------------3--3-3-3-3-3-3-3---|

 C|-----------------------------------------------------------------|
Ab|-----------------------------------------------------------------|
Eb|----------------------------------------3--2---------------------|
Bb|-----------------------------------5--5-------5--5-5-5-5-5-5-5---|
 F|--5--5-5-5-5-5---1--1-1-1-1-1-1-1--3--3----------3-3-3-3-3-3-3---|
Bb|--5--5-5-5-5-5---1--1-1-1-1-1-1-1--------------------------------|

Outro: both Guitars 03:27
 C|-------------------------------------------------|
Ab|-------------------------------------------------|
Eb|-------------------------------------------------|
Bb|--5--3--6p5--3h5--6p5--3---5--3--6p5--3h5--1-----|
 F|--5--3--6p5--3h5--6p5--3---5--3--6p5--3h5--1-----|
Bb|--5--3--6p5--3h5--6p5--3---5--3--6p5--3h5--1-----|

Guitars 1 and 2: 03:33
 C|-------------------------------------------------|
Ab|-------------------------------------------------|
Eb|-------------------------------------------------|
Bb|--5--3--6p5--3h5--6p5--8----8--8--8--8--8--8-----|
 F|--5--3--6p5--3h5--6p5--8----8--8--8--8--8--8-----|
Bb|--5--3--6p5--3h5--6p5--8----8--8--8--8--8--8-----|

Guitar 1: 03:37 (bend 1 whole step)
 F|---------------------------------------------------|
 C|---------------------------------------------------|
Ab|-------17b--17b-v--17b-v--17b--17b-17b--17b---17-v-|
Eb|---------------------------------------------------|
Bb|--\------------------------------------------------|
 F|--\------------------------------------------------|
Bb|--\------------------------------------------------|
     ^---Pick Slide

Guitar 2: 03:38
 C|-------------------------------------------------|
Ab|-------------------------------------------------|
Eb|-------------------------------------------------|
Bb|--5--3--6p5--3h5--6p5--3---5--3--6p5--3h5--1-----|
 F|--5--3--6p5--3h5--6p5--3---5--3--6p5--3h5--1-----|
Bb|--5--3--6p5--3h5--6p5--3---5--3--6p5--3h5--1-----|

Guitar 2: 03:43
 C|-------------------------------------------------|
Ab|-------------------------------------------------|
Eb|-------------------------------------------------|
Bb|--5--3--6p5--3h5--6p5--8-------------------------|
 F|--5--3--6p5--3h5--6p5--8-------------------------|
Bb|--5--3--6p5--3h5--6p5--8-------------------------|

Finished!
Добавлено: 27.05.2012
Другие материалы по этой песне:
  • Аккорды и текст

Страница создана 24.04.2012
http://primanota.ru/decyfer-down/life-again-chords.htm
Привет, Гость.
Предлагаем пройти революционный курс по гитаре.
Подарок от PrimaNota.Ru, забирай!