PrimaNota.ru - самый крупный в мире бесплатный архив песенных текстов, аккордов, табулатур и нот


Decyfer Down - Fight Like This - текст песни, таба, бас-таба, видео

Регистрация Запомнить меня
Войти через:  Facebook Google Twitter Vk Yandex Mail.ru

Decyfer Down - Fight Like This - текст песни, таба, бас-таба, видео

Печатать
Просмотров: 260
I know there is barely any Decyfer Down tabs, so I worked on getting these songs down 
you guys. Tuning is drop A#. Tune every string down two full steps, and your 6th string 
a whole extra step. Please comment/rate it. Thanks


Guitar 2 (intro)
-10--10--10------10------10------10-----10------|
-------------12------12------12------12-----12~-|
------------------------------------------------|
------------------------------------------------|
------------------------------------------------|
------------------------------------------------|

------------------------------------------------|
--10--10---8--8---7--7h8p7----------------------|
----------------------------9-------------------|
------------------------------------------------|
------------------------------------------------|
------------------------------------------------|

(repeat intro)

Guitar 1 and 2

------------------------------------------------------------|
------------------------------------------------------------|
--10--------------------------------------------------------|
--10---0---2--0---2-0-2---6---0--2--0--2--0--0--2b--0--2b---|
--8----0---2--0---2-0-2---6---0--2--0--2--0--0--2b--0--2b---|
-------0---2--0---2-0-2---6---0--2--0--2--0--0--2b--0--2b---|

(repeat 4 times with guitar 1)

guitar 2 plays this 3rd time:

------------------------------------------------------|
-10-10-10-10-10-10--12--10--9~---//15-15-15-15--17b---|
------------------------------------------------------|
------------------------------------------------------|
------------------------------------------------------|
------------------------------------------------------|

verse guitar 1

-------------------------------------|
-------------------------------------|
-------------------------------------|
-------------------------------------|
-------------------------------------|
-0--0--2---0--0--2--0--0--0--0--0----|
 *  *      *  *     *  *  *  *  *


----------------------------------------------|
----------------------------------------------|
----------------------------------------------|
----------------------------------------------|
-------------------------------------3--5--3--|
-0--0--2---0--0--2--0--0--0--0--0-------------|
 *  *      *  *     *  *  *  *  *

-------------------------------------|
-------------------------------------|
-------------------------------------|
-------------------------------------|
-------------------------------------|
-0--0--2---0--0--2--0--0--0--0--0----|
 *  *      *  *     *  *  *  *  *

-------------------------------------|
-------------------------------------|
-------------------------------------|
-------------------------------------|
-------------------------------------|
-0--0--2---0--0--2--0--0--0--0--0----|
 *  *      *  *     *  *  *  *  *

pre- chorus

-------------------------|
-------------------------|
-------------------------|
--3----0-----------------|
--3----0-----------------|
--3----0-----------------|

chorus

----------------------------|
----------------------------|
----------------------------|
--7-7--10-10--12-12-12-12---|
--7-7--10-10--12-12-12-12---|
--7-7--10-10--12-12-12-12---|

verse

pre chorus changes:

-------------------|
-------------------|
-------------------|
--2--6---0--2--6b--|     x2
--2------0--2------|
--2------0--2------|

chorus

bridge

----------------------|
----------------------|
----------------------|
----0-2-0-2-0-2h3-0---|    x8 (fourth time pick faster)
--1-------------------|
----------------------|
  * * * * * * * * *

guitar 1 and 2

---------------------------------|
---------------------------------|
---------------------------------|
-8/--0--2--0--2--0--2--3--2--0---|
-8/--0--2--0--2--0--2--3--2--0---|
-8/--0--2--0--2--0--2--3--2--0---|

chorus

intro
Добавлено: 24.06.2012
Другие материалы по этой песне:

Страница создана 23.03.2012
http://primanota.ru/decyfer-down/fight-like-this-chords.htm
Привет, Гость.
Предлагаем пройти революционный курс по гитаре.
Подарок от PrimaNota.Ru, забирай!