PrimaNota.ru - самый крупный в мире бесплатный архив песенных текстов, аккордов, табулатур и нот


Decyfer Down - Desperate - текст песни, таба, бас-таба, видео

Регистрация Запомнить меня
Войти через:  Facebook Google Twitter Vk Yandex Mail.ru

Decyfer Down - Desperate - текст песни, таба, бас-таба, видео

Печатать
Просмотров: 254
Decyfer Down Sweet Band!
The Song Desperate
Album: Crash

please rate and comment on it

First Intro Fade In
E-----------------------------------|
B-----------------------------------|
G-------4---------------------------|
D-0-2-0-4-------------------------7-|
A-0-2-0-2-(x?)--------------------7-|
D-0-2-0------------slide in from--7-|

Second Intro (Distortion)
E---------------------------------------------------|
B---------------------------------------------------|
G-------4--------6----------4-----------------------|
D-0-2-0-4------0-6----0-2-0-4------0-0-3--0-0-3--0--|
A-0-2-0-2-(x3)-0-4----0-2-0-2-(x3)-0-0-3--0-0-3--0--|
D-0-2-0--------0------0-2-0--------0-0-3--0-0-3--0--|(x2)
                                   ...    ...
Verse (Delay)tell here|
E---6----6----5----5--|---------|
B--5----5----5----5---|---------|
G-6----6----3----3----|---------|
D---------------------|--4------|
A---------------------|--4-(x8)-|
D---------------------|--4------|let of palm mute slowly
                        .
Chorus (Distortion)
E-----------------------------------------------------|
B-----------------------------------------------------|
G-4-------------------------------------6------7------|
D-4-(x16)-5-------0-0-3--0-0-3--2-------6-(x8)-7-(x8)-|
A-2-------5-(x12)-0-0-3--0-0-3--2-(x16)-4------5------|
D---------5-------0-0-3--0-0-3--2---------------------|
                  ...    ...

Play Second Intro x1
Then Play Verse the same
Then Play Chorus The same

Bridge
E---------------------------------------------------------|
B---------------------------------------------------------|
G---------------------------------------4-------------4---|
D-0-0--0-0--0---0-0--0-0--0---0-0--0-0--2---0-0--0-0--2---|
A-0-0--0-0--0---0-0--0-0--0---0-0--0-0--2---0-0--0-0--2---|
D-0-0--0-0--0---0-0--0-0--0---0-0--0-0--2---0-0--0-0--2---|(x2)
  ...  ...      ...  ...      ...  ...      ...  ...
Bridge continued
E----------------------------|
B----------------------------|
G----------------------------|
D-5--------2--------0--------|
A-5-(x16)--2-(x16)--0-(x16)--|
D-5--------2--------0--------|

Play Verse x1
Then play this

E-----------------------------------------|
B-----------------------------------------|
G--------------------------6------5-------|
D-0-0--3--0-0--3---2-------6-(x8)-5-(x8)--|
A-0-0--3--0-0--3---2-(x16)-4------7-------|
D-0-0--3--0-0--3---2----------------------|

Now Play The Chorus x1          
Play Intro x2                   
Then slide out on the last note
D-3--------------0--|
A-3-slide-out-to-0--|
D-3--------------0--|
Добавлено: 13.04.2012
Другие материалы по этой песне:
  • Аккорды и текст

Страница создана 13.04.2012
http://primanota.ru/decyfer-down/desperate-chords.htm
Привет, Гость.
Предлагаем пройти революционный курс по гитаре.
Подарок от PrimaNota.Ru, забирай!