PrimaNota.ru - самый крупный в мире бесплатный архив песенных текстов, аккордов, табулатур и нот


Decyfer Down - Crash - текст песни, таба, бас-таба, видео

Регистрация Запомнить меня
Войти через:  Facebook Google Twitter Vk Yandex Mail.ru

Decyfer Down - Crash - текст песни, таба, бас-таба, видео

Печатать
Просмотров: 257
Уроки эстрадного вокала в Санкт-Петербурге
Decyfer Down
Crash
Tabbed by U B the band
Tuning C G C F A D

Legend
h-hammer on                 pm-palm mute                 \-slide down
p-pull off                  /-slide up

Intro Guitar 1: Chris (Distorted with wah)
D|----------------------------------------------------------------------|
A|----------------------------------------------------------------------|
F|----------------------------------------------------------------------|
C|----------------------------------------------------------------------|
G|----------------------------------------------------------------------|
C|--0-0-0-10--0-0-0--8--7h8p7--5h7----0-0-0-10--0-0-0--8--0-8-8-7-7-----|

Intro Guitar 1: Chris (Distorted with wah)
D|----------------------------------------------------------------------|
A|----------------------------------------------------------------------|
F|----------------------------------------------------------------------|
C|----------------------------------------------------------------------|
G|----------------------------------------------------------------------|
C|--0-0-0-10--0-0-0--8--7h8p7--5h7----0-0-0-10--0-0-0--8--0-8-8-7-------|

Intro Guitars 1 & 2: (Distorted)
D|----------------------------------------------------------------------|
A|----------------------------------------------------------------------|
F|----------------------------------------------------------------------|
C|----------------------------------------------------------------------|
G|--0-0-0-10--0-0-0--8--7h8p7--5h7----0-0-0-10--0-0-0--8--0-8-8-7-7-----|
C|--0-0-0-10--0-0-0--8--7h8p7--5h7----0-0-0-10--0-0-0--8--0-8-8-7-7-----|

Intro Guitars 1 & 2: (Distorted)
D|----------------------------------------------------------------------|
A|----------------------------------------------------------------------|
F|----------------------------------------------------------------------|
C|----------------------------------------------------------------------|
G|--0-0-0-10--0-0-0--8--7h8p7--5h7----0-0-0-10--0-0-0--8--0-8-8-7-------|
C|--0-0-0-10--0-0-0--8--7h8p7--5h7----0-0-0-10--0-0-0--8--0-8-8-7-------|

Verse 1 Guitar 1: Chris (Distorted with wah)
D|----------------------------------------------------------------------|
A|----------------------------------------------------------------------|
F|----------------------------------------------------------------------|
C|----------------------------------------------------------------------|
G|----------------------------------------------------------------------|
C|--0-0-0-10--0-0-0--8--7h8p7--5h7----0-0-0-10--0-0-0--8--0-8-8-7-7-----|

Verse 1 Guitar 1: Chris (Distorted with wah)
D|----------------------------------------------------------------------|
A|----------------------------------------------------------------------|
F|----------------------------------------------------------------------|
C|----------------------------------------------------------------------|
G|----------------------------------------------------------------------|
C|--0-0-0-10--0-0-0--8--7h8p7--5h7----0-0-0-10--0-0-0--8--0-8-8-7-------|

Verse 1 Guitars 1 & 2: (Distorted)
D|----------------------------------------------------------------------|
A|----------------------------------------------------------------------|
F|----------------------------------------------------------------------|
C|----------------------------------------------------------------------|
G|--0-0-0--10---0-0--0---8p7-8p7----0-0-0--10---0-0--0---8p7-8p7--------|
C|--0-0-0--10---0-0--0---8p7-8p7----0-0-0--10---0-0--0---8p7-8p7--------|
    pmpmpm      pmpmpm              pmpmpm      pmpmpm

Verse 1 Guitars 1 & 2: (Distorted)
D|----------------------------------------------------------------------|
A|----------------------------------------------------------------------|
F|----------------------------------------------------------------------|
C|----------------------------------------------------------------------|
G|--0-0-0--10---0-0--0---8p7-8p7----0-0-0--10---0-0--0---8p7-8p7--------|
C|--0-0-0--10---0-0--0---8p7-8p7----0-0-0--10---0-0--0---8p7-8p7--------|
    pmpmpm      pmpmpm              pmpmpm      pmpmpm

Pre-Chorus Guitar 1 (Distorted)
D|----------------------------------------------------------------------|
A|----------------------------------------------------------------------|
F|----------------------------------------------------------------------|
C|--0-------------------------------------------------------------------|
G|--0-------------------------------------------------------------------|
C|--0-------------------------------------------------------------------|
                                                                        |
Pre-Chorus Guitar 2 (Acoustic)                                          |
D|----------------------------------------------------------------------|
A|----------------------------------------------------------------------|
F|---------5/7------------------------------7---------------------------|
C|------0-----------8---7---5---7------0-----------8---7---5---7--------|
G|----------------------------------------------------------------------|
C|----------------------------------------------------------------------|

Chorus Guitar 1 (Distorted)
D|----------------------------------------------------------------------|
A|----------------------------------------------------------------------|
F|----------------------------------------------------------------------|
C|--0--0-0--0--0-0--8--8-8--8--8-8--3--3-3--3--3-3--2--2-2--2-2---1-----|
G|--0--0-0--0--0-0--8--8-8--8--8-8--3--3-3--3--3-3--3--3-3--3-3---1-----|
C|--0--0-0--0--0-0--8--8-8--8--8-8--3--3-3--3--3-3--2--2-2--2-2---1-----|
                                                                        |
Chorus Guitar 2                                                         |
D|----------------------------------------------------------------------|
A|----------------------------------------------------------------------|
F|------7---------------7----------------5----------------5-------------|
C|---7---------------7--------------------------------------------------|
G|------------------------------------3----------------3----------------|
C|----------------------------------------------------------------------|

Chorus Guitar 1 (Distorted)
D|----------------------------------------------------------------------|
A|----------------------------------------------------------------------|
F|----------------------------------------------------------------------|
C|--0--0-0--0--0-0--8--8-8--8--8-8--3--3-3--3--3-3--5--5-5--5-5---------|
G|--0--0-0--0--0-0--8--8-8--8--8-8--3--3-3--3--3-3--5--5-5--5-5---------|
C|--0--0-0--0--0-0--8--8-8--8--8-8--3--3-3--3--3-3--5--5-5--5-5--3/10\3-|
                                                                        |
Chorus Guitar 2                                                         |
D|----------------------------------------------------------------------|
A|------5---------------------------------------------------------------|
F|---------7------------7----------------5----------------5-------------|
C|---7--------7------7--------------------------------------------------|
G|------------------------------------3----------------3----------------|
C|----------------------------------------------------------------------|

Post Chorus Guitar 1: (Distorted)
D|----------------------------------------------------------------------|
A|----------------------------------------------------------------------|
F|----------------------------------------------------------------------|
C|----------------------------------------------------------------------|
G|--0-0-0-10--0-0-0--8--7h8p7--5h7----0-0-0-10--0-0-0--8--0-8-8-7-7-----|
C|--0-0-0-10--0-0-0--8--7h8p7--5h7----0-0-0-10--0-0-0--8--0-8-8-7-7-----|
                                                                        |
Post Chorus Guitar 2                                                    |
D|--0-------------------------------------------------------------------|
A|--5-------------------------------------------------------------------|
F|--7-------------------------------------------------------------------|
C|----------------------------------------------------------------------|
G|----------------------------------------------------------------------|
C|----------------------------------------------------------------------|

Post Chorus Guitar 1: (Distorted)
D|----------------------------------------------------------------------|
A|----------------------------------------------------------------------|
F|----------------------------------------------------------------------|
C|----------------------------------------------------------------------|
G|--0-0-0-10--0-0-0--8--7h8p7--5h7----0-0-0-10--0-0-0--8--0-8-8-7-------|
C|--0-0-0-10--0-0-0--8--7h8p7--5h7----0-0-0-10--0-0-0--8--0-8-8-7-------|

Verse 2 Guitar 1: Chris (Distorted with wah)
D|----------------------------------------------------------------------|
A|----------------------------------------------------------------------|
F|----------------------------------------------------------------------|
C|----------------------------------------------------------------------|
G|----------------------------------------------------------------------|
C|--0-0-0-10--0-0-0--8--7h8p7--5h7----0-0-0-10--0-0-0--8--0-8-8-7-7-----|

Verse 2 Guitar 1: Chris (Distorted with wah)
D|----------------------------------------------------------------------|
A|----------------------------------------------------------------------|
F|----------------------------------------------------------------------|
C|----------------------------------------------------------------------|
G|----------------------------------------------------------------------|
C|--0-0-0-10--0-0-0--8--7h8p7--5h7----0-0-0-10--0-0-0--8--0-8-8-7-------|

Verse 2 Guitars 1 & 2: (Distorted)
D|----------------------------------------------------------------------|
A|----------------------------------------------------------------------|
F|----------------------------------------------------------------------|
C|----------------------------------------------------------------------|
G|--0-0-0--10---0-0--0---8p7-8p7----0-0-0--10---0-0--0---8p7-8p7--------|
C|--0-0-0--10---0-0--0---8p7-8p7----0-0-0--10---0-0--0---8p7-8p7--------|
    pmpmpm      pmpmpm              pmpmpm      pmpmpm

Verse 2 Guitars 1 & 2: (Distorted)
D|----------------------------------------------------------------------|
A|----------------------------------------------------------------------|
F|----------------------------------------------------------------------|
C|----------------------------------------------------------------------|
G|--0-0-0--10---0-0--0---8p7-8p7----0-0-0--10---0-0--0---8p7-8p7--------|
C|--0-0-0--10---0-0--0---8p7-8p7----0-0-0--10---0-0--0---8p7-8p7--------|
    pmpmpm      pmpmpm              pmpmpm      pmpmpm

Pre-Chorus Guitar 1 (Distorted)
D|----------------------------------------------------------------------|
A|----------------------------------------------------------------------|
F|----------------------------------------------------------------------|
C|----------------------------------------------------------------------|
G|--0-------------------------------------------------------------------|
C|--0-------------------------------------------------------------------|

Pre-Chorus Guitar 2 (Acoustic)
D|----------------------------------------------------------------------|
A|----------------------------------------------------------------------|
F|-----------7------------------------------7---------------------------|
C|------0-----------8---7---5---7------0-----------8---7---5---7--------|
G|----------------------------------------------------------------------|
C|----------------------------------------------------------------------|

Chorus Guitar 1 (Distorted)
D|----------------------------------------------------------------------|
A|----------------------------------------------------------------------|
F|----------------------------------------------------------------------|
C|--0--0-0--0--0-0--8--8-8--8--8-8--3--3-3--3--3-3--2--2-2--2-2---1-----|
G|--0--0-0--0--0-0--8--8-8--8--8-8--3--3-3--3--3-3--3--3-3--3-3---1-----|
C|--0--0-0--0--0-0--8--8-8--8--8-8--3--3-3--3--3-3--2--2-2--2-2---1-----|
                                                                        |
Chorus Guitar 2                                                         |
D|----------------------------------------------------------------------|
A|----------------------------------------------------------------------|
F|------7---------------7----------------5----------------5-------------|
C|---7---------------7--------------------------------------------------|
G|------------------------------------3----------------3----------------|
C|----------------------------------------------------------------------|

Chorus Guitar 1 (Distorted)
D|----------------------------------------------------------------------|
A|----------------------------------------------------------------------|
F|--------------------------------------------------5--5-5--5-5---------|
C|--0--0-0--0--0-0--8--8-8--8--8-8--3--3-3--3--3-3--5--5-5--5-5---7-/8--|
G|--0--0-0--0--0-0--8--8-8--8--8-8--3--3-3--3--3-3--3--3-3--3-3---7-/8--|
C|--0--0-0--0--0-0--8--8-8--8--8-8--3--3-3--3--3-3----------------7-/8--|
                                                                        |
Chorus Guitar 2                                                         |
D|----------------------------------------------------------------------|
A|------5---------------------------------------------------------------|
F|---------7------------7----------------5----------------5-------------|
C|---7--------7------7--------------------------------------------------|
G|------------------------------------3----------------3----------------|
C|----------------------------------------------------------------------|

Chorus 2 Guitar 1 (Distorted)
D|----------------------------------------------------------------------|
A|----------------------------------------------------------------------|
F|----------------------------------------------------------------------|
C|--0---------------8---------------3---------------5-------------------|
G|--0---------------8---------------3---------------5------------5/6\3--|
C|--0---------------8---------------3---------------5------------5/6\3--|
                                                                        |
Chorus Guitar 2                                                         |
D|----------------------------------------------------------------------|
A|----------------------------------------------------------------------|
F|------7---------------7----------------5----------------5-------------|
C|---7---------------7--------------------------------------------------|
G|------------------------------------3----------------3----------------|
C|----------------------------------------------------------------------|

Bridge Guitar 1 (Distorted)
D|----------------------------------------------------------------------|
A|----------------------------------------------------------------------|
F|----------------------------------------------------------------------|
C|----------------------------------------------------------------------|
G|--0--1----1p0--1--6--0----1p0--3--0--1----1p0--1--6--0----0--0--1h3p1-|
C|--0--1----1p0--1--6--0----1p0--3--0--1----1p0--1--6--0----0--0--1h3p1-|
    pm                                                      pmpm        |
Bridge Guitar 2 (clean)                                                 |
D|--0--------------------0---------------0---------------0--------------|
A|--5--------------------5---------------5---------------5--------------|
F|--7--------------------7---------------7---------------7--------------|
C|--7--------------------7---------------7---------------7--------------|
G|----------------------------------------------------------------------|
C|----------------------------------------------------------------------|

Bridge Guitar 1 (Distorted)
D|----------------------------------------------------------------------|
A|----------------------------------------------------------------------|
F|----------------------------------------------------------------------|
C|----------------------------------------------------------------------|
G|--0--1----1p0--1--6--0----1p0--3--0--1----1p0--1--6--0----0--0--1h3p1-|
C|--0--1----1p0--1--6--0----1p0--3--0--1----1p0--1--6--0----0--0--1h3p1-|
                                                            pmpm        |
Bridge Guitar 2 (Distorted with wah)                                    |
D|----------------------------------------------------------------------|
A|----------------------------------------------------------------------|
F|----------------------------------------------------------------------|
C|-------8---------------7---------------5---------------7--------------|
G|-------6---------------5---------------3---------------5--------------|
C|----------------------------------------------------------------------|

Bridge Guitar 1 (Distorted)
D|----------------------------------------------------------------------|
A|----------------------------------------------------------------------|
F|----------------------------------------------------------------------|
C|----------------------------------------------------------------------|
G|--0--1----1p0--1--6--0----1p0--3--0--1----1p0--1--6--0----0--0--1h3p1-|
C|--0--1----1p0--1--6--0----1p0--3--0--1----1p0--1--6--0----0--0--1h3p1-|
                                                            pmpm        |
Bridge Guitar 2 (Distorted with wah)                                    |
D|----------------------------------------------------------------------|
A|----------------------------------------------------------------------|
F|----------------------------------------------------------------------|
C|-------8---------------7---------------5---------------7--------------|
G|-------6---------------5---------------3---------------5--------------|
C|----------------------------------------------------------------------|

Bridge Guitar 1 (Distorted)
D|----------------------------------------------------------------------|
A|----------------------------------------------------------------------|
F|----------------------------------------------------------------------|
C|----------------------------------------------------------------------|
G|--0--1----1p0--1--6--0----1p0--3--0--1----1p0--1--6--0----0--0--1h3p1-|
C|--0--1----1p0--1--6--0----1p0--3--0--1----1p0--1--6--0----0--0--1h3p1-|
                                                            pmpm        |
Bridge Guitar 2 (Distorted with wah)                                    |
D|----------------------------------------------------------------------|
A|----------------------------------------------------------------------|
F|----------------------------------------------------------------------|
C|-------8---------------7---------------5---------------7--------------|
G|-------6---------------5---------------3---------------5--------------|
C|----------------------------------------------------------------------|

Chorus 3 Guitar 1 (Distorted)
D|----------------------------------------------------------------------|
A|----------------------------------------------------------------------|
F|----------------------------------------------------------------------|
C|--0-------------------------------------------------------------------|
G|--0-------------------------------------------------------------------|
C|--0-------------------------------------------------------------------|

Chorus 3 Guitar 1 (Distorted)
D|----------------------------------------------------------------------|
A|----------------------------------------------------------------------|
F|----------------------------------------------------------------------|
C|----------------------------------------------------------------------|
G|----------------------------------------------------------------------|
C|-----------------------------------------------------------3/10\3-----|

Chorus Guitar 1 (Distorted)
D|----------------------------------------------------------------------|
A|----------------------------------------------------------------------|
F|----------------------------------------------------------------------|
C|--0--0-0--0--0-0--8--8-8--8--8-8--3--3-3--3--3-3--2--2-2--2-2---1-----|
G|--0--0-0--0--0-0--8--8-8--8--8-8--3--3-3--3--3-3--3--3-3--3-3---1-----|
C|--0--0-0--0--0-0--8--8-8--8--8-8--3--3-3--3--3-3--2--2-2--2-2---1-----|
                                                                        |
Chorus Guitar 2                                                         |
D|----------------------------------------------------------------------|
A|------------------------------------------1---------------------------|
F|------7---------------7----------------2-----2--0-------5-------------|
C|---7---------------7--------------------------------------------------|
G|------------------------------------3----------------3----------------|
C|----------------------------------------------------------------------|

Chorus Guitar 1 (Distorted)
D|----------------------------------------------------------------------|
A|----------------------------------------------------------------------|
F|----------------------------------------------------------------------|
C|--0--0-0--0--0-0--8--8-8--8--8-8--3--3-3--3--3-3--5--5-5--5--5-5------|
G|--0--0-0--0--0-0--8--8-8--8--8-8--3--3-3--3--3-3--5--5-5--5--5-5------|
C|--0--0-0--0--0-0--8--8-8--8--8-8--3--3-3--3--3-3--5--5-5--5--5-5------|
                                                                        |
Chorus Guitar 2                                                         |
D|----------------------------------------------------------------------|
A|------5-----------------------------------1---------------------------|
F|---------7------------7----------------2-----2--0-------5-------------|
C|---7--------7------7--------------------------------------------------|
G|------------------------------------3----------------3----------------|
C|----------------------------------------------------------------------|

Chorus Guitar 1 (Distorted)
D|----------------------------------------------------------------------|
A|----------------------------------------------------------------------|
F|--------------------------------------------------5--5-5--5-5---------|
C|--0--0-0--0--0-0--8--8-8--8--8-8--3--3-3--3--3-3--5--5-5--5-5---2---2-|
G|--0--0-0--0--0-0--8--8-8--8--8-8--3--3-3--3--3-3--3--3-3--3-3-0-3-0-3-|
C|--0--0-0--0--0-0--8--8-8--8--8-8--3--3-3--3--3-3--------------0-2-0-2-|
                                                                        |
Chorus Guitar 2                                                         |
D|----------------------------------------------------------------------|
A|------5-----------------------------------1--------------5------------|
F|---------7------------7----------------2-----2--0-----------5---------|
C|---7--------7------7--------------------------------------------------|
G|------------------------------------3-----------------3---------------|
C|----------------------------------------------------------------------|

Chorus Guitar 1 (Distorted)
D|----------------------------------------------------------------------|
A|----------------------------------------------------------------------|
F|----------------------------------------------------------------------|
C|--0---------------8---------------3---------------5-------------------|
G|--0---------------8---------------3---------------5---------------10\-|
C|--0---------------8---------------3---------------5---------------10\-|
                                                                        |
Chorus Guitar 2                                                         |
D|----------------------------------------------------------------------|
A|------------------------------------------1---------------------------|
F|------7---------------7----------------2-----2--0-------5-------------|
C|---7---------------7--------------------------------------------------|
G|------------------------------------3----------------3----------------|
C|----------------------------------------------------------------------|

Outro Guitars 1 & 2: (Distorted)
D|----------------------------------------------------------------------|
A|----------------------------------------------------------------------|
F|----------------------------------------------------------------------|
C|----------------------------------------------------------------------|
G|--0-0-0-10--0-0-0--8--7h8p7--5h7----0-0-0-10--0-0-0--8--0-8-8-7-7-----|
C|--0-0-0-10--0-0-0--8--7h8p7--5h7----0-0-0-10--0-0-0--8--0-8-8-7-7-----|

Outro Guitars 1 & 2: (Distorted)
D|----------------------------------------------------------------------|
A|----------------------------------------------------------------------|
F|----------------------------------------------------------------------|
C|----------------------------------------------------------------------|
G|--0-0-0-10--0-0-0--8--7h8p7--5h7----0-0-0-10--0-0-0--8--0-8-8-7-7-----|
C|--0-0-0-10--0-0-0--8--7h8p7--5h7----0-0-0-10--0-0-0--8--0-8-8-7-7-----|

Outro Guitars 1 & 2: (Distorted)
D|----------------------------------------------------------------------|
A|----------------------------------------------------------------------|
F|----------------------------------------------------------------------|
C|----------------------------------------------------------------------|
G|--0-0-0-10--0-0-0--8--7h8p7--5h7----0-0-0-10--0-0-0--8--0-8-8-7-7-----|
C|--0-0-0-10--0-0-0--8--7h8p7--5h7----0-0-0-10--0-0-0--8--0-8-8-7-7-----|

Outro Guitars 1 & 2: (Distorted)
D|----------------------------------------------------------------------|
A|----------------------------------------------------------------------|
F|----------------------------------------------------------------------|
C|----------------------------------------------------------------------|
G|--0-0-0-10--0-0-0--8--7h8p7--5h7----0-0-0-10--0-0-0--8--0-8-8-7-7-----|
C|--0-0-0-10--0-0-0--8--7h8p7--5h7----0-0-0-10--0-0-0--8--0-8-8-7-7-----|

Finished!
Добавлено: 11.05.2012
Другие материалы по этой песне:

Страница создана 06.05.2012
http://primanota.ru/decyfer-down/crash-chords.htm
Привет, Гость.
Предлагаем пройти революционный курс по гитаре.
Подарок от PrimaNota.Ru, забирай!