PrimaNota.ru - самый крупный в мире бесплатный архив песенных текстов, аккордов, табулатур и нот


Decyfer Down - Burn Back The Sun - текст песни, таба, видео

Регистрация Запомнить меня
Войти через:  Facebook Google Twitter Vk Yandex Mail.ru

Decyfer Down - Burn Back The Sun - текст песни, таба, видео

Печатать
Просмотров: 191
Decyfer Down
Burn Back The Sun
Tabbed by U B the band
Tunings Bb F Bb Eb Ab C F (Chris)
        Bb F Bb Eb Ab C  (Brandon)

Okay I know a lot of people have asked me to tab this song and I
finally got around to doing it (this is mainly Chris' guitar parts)
I'll add Brandons as soon as I can.

Intro: Play 2 times
 F|-----------------------------------------------|
 C|-----------------------------------------------|
Ab|---------------------------2------2------------|
Eb|--7--------7--------3------3------3------------|
Bb|--8--------8--------1------1------1------------|
 F|--5--------5--------1------1------1------------|
Bb|--5--------5--------1------1------1------------|

Verse: play 3 times
 F|-----------------------------------------------|
 C|-----------------------------------------------|
Ab|---------------------------2------2------------|
Eb|--7--------7--------3------3------3------------|
Bb|--8--------8--------1------1------1------------|
 F|--5--------5--------1------1------1------------|
Bb|--5--------5--------1------1------1------------|

Verse:
 F|-----------------------------------------------|
 C|-----------------------------------------------|
Ab|-----------------------------------------------|
Eb|--7--------7-----------------------------------|
Bb|--8--------8--------10----------1--------------|
 F|--5--------5--------10----------1--------------|
Bb|--5--------5--------10----------1--------------|

Chorus: Play 2 times                             --|
 F|-----------------------------------------------||
 C|-----------------------------------------------||
Ab|-----------------------------------------------||
Eb|-----------------------------------------------||
Bb|--8---8--8--8--8--8---3---3-3--3---3--3--3-----||
 F|--8---8--8--8--8--8---3---3-3--3---3--3--3-----||
Bb|--8---8--8--8--8--8---3---3-3--3---3--3--3-----||
                                                   |
 F|-----------------------------------------------||
 C|-----------------------------------------------||
Ab|-----------------------------------------------||
Eb|-----------------------------------------------||
Bb|--5---5--5--5--5--5--0-1---1--1--1---1--1------||
 F|--5---5--5--5--5--5--0-1---1--1--1---1--1------||
Bb|--5---5--5--5--5--5--0-1---1--1--1---1--1------||
                                                 --|
Chorus Cont.
 F|-----------------------------------------------|
 C|-----------------------------------------------|
Ab|-----------------------------------------------|
Eb|-----------------------------------------------|
Bb|--8---8--8--8--8--8---3---3-3--3---3--3--3-----|
 F|--8---8--8--8--8--8---3---3-3--3---3--3--3-----|
Bb|--8---8--8--8--8--8---3---3-3--3---3--3--3-----|

 F|-----------------------------------------------|
 C|-----------------------------------------------|
Ab|-----------------------------------------------|
Eb|-----------------------------------------------|
Bb|--5---5--5--5--5--5--0-1-----------------------|
 F|--5---5--5--5--5--5--0-1-----------------------|
Bb|--5---5--5--5--5--5--0-1-----------------------|

Re-tro:
 F|-----------------------------------------------|
 C|-----------------------------------------------|
Ab|---------------------------2------2------------|
Eb|--7--------7--------3------3------3------------|
Bb|--8--------8--------1------1------1------------|
 F|--5--------5--------1------1------1------------|
Bb|--5--------5--------1------1------1------------|

Re-tro (Brandon) with delay
 C|-----------------------------------------------|
Ab|-----------------------------------------------|
Eb|-------------------------------------6/7-------|
Bb|-----------------------------------------------|
 F|-----------------------------------------------|
Bb|-----------------------------------------------|

Re-tro:
 F|-----------------------------------------------|
 C|-----------------------------------------------|
Ab|---------------------------2------2------------|
Eb|--7--------7--------3------3------3------------|
Bb|--8--------8--------1------1------1------------|
 F|--5--------5--------1------1------1------------|
Bb|--5--------5--------1------1------1------------|

Re-tro (Brandon) with delay
 C|-----------------------------------------------|
Ab|-----------------------------------------------|
Eb|-------------------------------------6/7--8--7-|
Bb|-----------------------------------------------|
 F|-----------------------------------------------|
Bb|-----------------------------------------------|

Verse 2: play 3 times
 F|-----------------------------------------------|
 C|-----------------------------------------------|
Ab|---------------------------2------2------------|
Eb|--7--------7--------3------3------3------------|
Bb|--8--------8--------1------1------1------------|
 F|--5--------5--------1------1------1------------|
Bb|--5--------5--------1------1------1------------|

Verse 2:
 F|-----------------------------------------------|
 C|-----------------------------------------------|
Ab|-----------------------------------------------|
Eb|--7--------7-----------------------------------|
Bb|--8--------8--------10----------1--------------|
 F|--5--------5--------10----------1--------------|
Bb|--5--------5--------10----------1--------------|

Chorus: Play 2 times                             --|
 F|-----------------------------------------------||
 C|-----------------------------------------------||
Ab|-----------------------------------------------||
Eb|-----------------------------------------------||
Bb|--8---8--8--8--8--8---3---3-3--3---3--3--3-----||
 F|--8---8--8--8--8--8---3---3-3--3---3--3--3-----||
Bb|--8---8--8--8--8--8---3---3-3--3---3--3--3-----||
                                                   |
 F|-----------------------------------------------||
 C|-----------------------------------------------||
Ab|-----------------------------------------------||
Eb|-----------------------------------------------||
Bb|--5---5--5--5--5--5--0-1---1--1--1---1--1------||
 F|--5---5--5--5--5--5--0-1---1--1--1---1--1------||
Bb|--5---5--5--5--5--5--0-1---1--1--1---1--1------||
                                                 --|
Chorus Cont.
 F|-----------------------------------------------|
 C|-----------------------------------------------|
Ab|-----------------------------------------------|
Eb|-----------------------------------------------|
Bb|--8---8--8--8--8--8---3---3-3--3---3--3--3-----|
 F|--8---8--8--8--8--8---3---3-3--3---3--3--3-----|
Bb|--8---8--8--8--8--8---3---3-3--3---3--3--3-----|

 F|-----------------------------------------------|
 C|-----------------------------------------------|
Ab|-----------------------------------------------|
Eb|-----------------------------------------------|
Bb|--5---5--5--5--5--5--0-1-----------------------|
 F|--5---5--5--5--5--5--0-1-----------------------|
Bb|--5---5--5--5--5--5--0-1-----------------------|

Bridge: Play 4 times
 F|-----------------------------------------------|
 C|-----------------------------------------------|
Ab|-----------------------------------------------|
Eb|-----------------------------------------------|
Bb|--5------------------0--------1----------------|
 F|--5------------------0--------1----------------|
Bb|--5------------------0--------1----------------|

Chorus 2:
 F|-----------------------------------------------|
 C|-----------------------------------------------|
Ab|------------9----10----9-----------------------|
Eb|------10---------------------10----------------|
Bb|--8--------------------------8-----------------|
 F|--8--------------------------10----------------|
Bb|--8--------------------------------------------|

Chorus 2:
 F|-----------------------------------------------|
 C|-----------------------------------------------|
Ab|-----------------------------------------------|
Eb|-----------------------------------------------|
Bb|--5---5--5--5--5--5--0-1-----------------------|
 F|--5---5--5--5--5--5--0-1-----------------------|
Bb|--5---5--5--5--5--5--0-1-----------------------|

Chorus: Play 2 times                             --|
 F|-----------------------------------------------||
 C|-----------------------------------------------||
Ab|-----------------------------------------------||
Eb|-----------------------------------------------||
Bb|--8---8--8--8--8--8---3---3-3--3---3--3--3-----||
 F|--8---8--8--8--8--8---3---3-3--3---3--3--3-----||
Bb|--8---8--8--8--8--8---3---3-3--3---3--3--3-----||
                                                   |
 F|-----------------------------------------------||
 C|-----------------------------------------------||
Ab|-----------------------------------------------||
Eb|-----------------------------------------------||
Bb|--5---5--5--5--5--5--0-1---1--1--1---1--1------||
 F|--5---5--5--5--5--5--0-1---1--1--1---1--1------||
Bb|--5---5--5--5--5--5--0-1---1--1--1---1--1------||
                                                 --|
Chorus Cont.
 F|-----------------------------------------------|
 C|-----------------------------------------------|
Ab|-----------------------------------------------|
Eb|-----------------------------------------------|
Bb|--8---8--8--8--8--8---3---3-3--3---3--3--3-----|
 F|--8---8--8--8--8--8---3---3-3--3---3--3--3-----|
Bb|--8---8--8--8--8--8---3---3-3--3---3--3--3-----|

 F|-----------------------------------------------|
 C|-----------------------------------------------|
Ab|-----------------------------------------------|
Eb|-----------------------------------------------|
Bb|--5---5--5--5--5--5--0-1-----------------------|
 F|--5---5--5--5--5--5--0-1-----------------------|
Bb|--5---5--5--5--5--5--0-1-----------------------|

I'll add Brandons lead soon.
Добавлено: 16.03.2012
Другие материалы по этой песне:
  • Аккорды и текст

Страница создана 16.03.2012
http://primanota.ru/decyfer-down/burn-back-the-sun-chords.htm
Привет, Гость.
Предлагаем пройти революционный курс по гитаре.
Подарок от PrimaNota.Ru, забирай!