PrimaNota.ru - самый крупный в мире бесплатный архив песенных текстов, аккордов, табулатур и нот


Decrepit Birth - The Infestation - текст песни, таба, видео

Регистрация Запомнить меня
Войти через:  Facebook Google Twitter Vk Yandex Mail.ru

Decrepit Birth - The Infestation - текст песни, таба, видео

Печатать
Просмотров: 123
Tuning is D [D, G, C, F, A, D]

[Intro]
|--------------------------------------------|
|--------------------------------------------|
|--------------------------------------------|
|--------------------------------------------|
|-4--3------4-5-3-4-----5--4------3--2-------|
|-5--4--3-4---------3-4-6--5--0-0-4--3--0-0--|
   .  .  . . . . . . . . .  .  . . .  .  . .

|-------------------------------------------|
|-------------------------------------------|
|-------------------------------------------|
|-------------------------------------------|
|-4--3------4-5-3-4-------------------------|
|-5--4--3-4---------3-4-666555666777666555--|
   .  .  . . . . . . . . ..................

|--------------------------------------------|
|--------------------------------------------|
|--------------------------------------------|
|--------------------------------------------|
|-4--3------4-5-3-4-----5--4------3--2-------|
|-5--4--3-4---------3-4-6--5--0-0-4--3--0-0--|
   .  .  . . . . . . . . .  .  . . .  .  . .

                         [Riff 1a]
-----------------------||---------------------------------------------|
-----------------------||o--------------------------------------------|
-----------------------||---------------------------------------------|
-----------------------||---------------------------------------------|
-4--3------4-5-3-4-----||o-666555666777666777888777666777666555666555-|
-5--4--3-4---------3-4-||---------------------------------------------|
 .  .  . . . . . . . . |   ..........................................
-----------------------||---------------------------------------------|
-----------------------||o--------------------------------------------|
-----------------------||---------------------------------------------|
-----------------------||---------------------------------------------|
-4--3------4-5-3-4-----||o--------------------------------------------|
-5--4--3-4---------3-4-||--666555666777666777888777666777666555666555-|
 .  .  . . . . . . . .     ..........................................

               ______________________
              | 1.
--------------|----------------------||
--------------|---------------------o||
--------------|----------------------||
--------------|-6--------5-----------||
-666777666555-|-3--7--6--2--6--5----o||
--------------|----4--3-----3--2-----||
 ............ |    .  .     .  .      |
--------------|----------------------||
--------------|---------------------o||
--------------|----------------------||
--------------|-6--------5-----------||
--------------|-3--7--6--2--6--5----o||
-666777666555-|----4--3-----3--2-----||
 ............      .  .     .  .

  _____________________________________________________________
 | 2.
|----------------|--------------------------------------------|
|----------------|--------------------------------------------|
|----------------|--------------------------------------------|
|-6--------5-----|--------------------------------------------|
|-3--7--6--2--6--|-4--3------------------5--4------3--2-------|
|----4--3-----3--|-5--4------------------6--5--0-0-4--3--0-0--|
 |    .  .     .  | .  .                  .  .  . . .  .  . . |
|----------------|--------------------------------------------|
|----------------|--------------------------------------------|
|----------------|--------------------------------------------|
|-6--------5-----|--------------------------------------------|
|-3--7--6--2--6--|-4--3------4-5-3-4-----5--4------3--2-------|
|----4--3-----3--|-5--4--3-4---------3-4-6--5--0-0-4--3--0-0--|
      .  .     .    .  .  . . . . . . . . .  .  . . .  .  . .

|------------------------------------------|
|------------------------------------------|
|------------------------------------------|
|------------------------------------------|
|-4--3------4-5-3-4------------------------|
|-5--4--3-4---------3-4-666555666777666----|
 | .  .  . . . . . . . . ...............    |
|------------------------------------------|
|------------------------------------------|
|------------------------------------------|
|------------------------------------------|
|-4--3-------------------------------------|
|-5--4------------------666555666777666----|
   .  .                  ...............

[Riff 1b (x2)]
||--------------------|-------------------|-------------------|-------------|
||o-------------------|-------------------|-------------------|-------------|
||--------------------|-------------------|-------------------|-------------|
||-----------6--------|-5-----------------|-6--------5--------|-4-----------|
||o-5--2--3--3--7--6--|-2--6--5--5--2--3--|-3--7--6--2--6--5--|-1--5--4-----|
||--6--3--4-----4--3--|----3--2--6--3--4--|----4--3-----3--2--|----2--1-----|
    .  .  .     .  .       .  .  .  .  .       .  .     .  .       .  .

[Outro]                  x2
||-----------|-----------||----------|--------|
||o----------|----------o||----------|--------|
||-----------|-----------||----------|--------|
||-----------|-----------||----------|--------|
||o-5--2--3--|-5--2--3--o||-5--2--3--|-5------|
||--6--3--4--|-6--3--4---||-6--3--4--|-6------|

[Riff 2a]
||-------------------|----------------------|
||-------------------|----------------------|
||-------------------|----------------------|
||-------------------|----------------------|
||-3--3--2--3--4--3--|-4--5-5-4--3--4-4-3---|
||-4--4--3--4--5--4--|-5--6-6-5--4--5-5-4---|
   .  .  .  .  .  .    .  . . .  .  . . .

|-------------------|-------------|----------||
|-------------------|-------------|----------||
|-------------------|-------------|----------||
|-------------------|----6--------|-5--------||
|-2--3--2--3--4--3--|-4--3--7--6--|-2--6--5--||
|-3--4--3--4--5--4--|-5-----4--3--|----3--2--||
   .  .  .  .  .  .    .  .  .  .    .  .  .

[Riff 2b]
||-------------------|----------------------|
||-------------------|----------------------|
||-------------------|----------------------|
||-------------------|----------------------|
||-3--2--3--4--3--4--|-5-5-4--3--4-4-3--2---|
||-4--3--4--5--4--5--|-6-6-5--4--5-5-4--3---|
   .  .  .  .  .  .    . . .  .  . . .  .

|-------------------|-------------------||
|-------------------|-------------------||
|-------------------|-------------------||
|-------------------|-6--------5--------||
|-3--2--3--4--3--4--|-3--7--6--2--6--5--||
|-4--3--4--5--4--5--|----4--3-----3--2--||
   .  .  .  .  .  .       .  .     .  .

[Riff 3]                                               x2
||--------------------------|--------------------------|-|
||o-------------------------|-------------------------o|-|
||--------------------------|--------------------------|-|
||--5-4---------5-4---------|-6-5----------------------|-|
||o-----6-5-3-4-----6-5-3-4-|-----7-6-----8-7---------o|-|
||--------------------------|---------8-7-----9-8-6-7--|-|
|   . . . . . . . . . . . . | . . . . . . . . . . . .   |
||--------------------------|--------------------------|-|
||o-------------------------|-------------------------o|-|
||--------------------------|--------------------------|-|
||--------------------------|-1-0----------------------|-|
||o-5-4---------5-4---------|-----2-1-----3-2---------o|-|
||------6-5-3-4-----6-5-3-4-|---------4-3-----4-3-1-2--|-|
    . . . . . . . . . . . .   . . . . . . . . . . . .

                                                    x2
||------------------------|------------------------|-|
||o-----------------------|-----------------------o|-|
||------------------------|-6-5--------------------|-|
||--5-4--------5-4--------|-6-5-7-6----8-7---------|-|
||o-5-4-6-5-3--5-4-6-5-3--|-----7-6-8--8-7-9-8-6--o|-|
||------6-5-3------6-5-3--|---------8------9-8-6---|-|
 |   . . . . .  . . . . .  | . . . . .  . . . . .    |
||------------------------|------------------------|-|
||o-----------------------|-----------------------o|-|
||------------------------|-6-5--------------------|-|
||--5-4--------5-4--------|-6-5-7-6----8-7---------|-|
||o-5-4-6-5-3--5-4-6-5-3--|-----7-6-8--8-7-9-8-6--o|-|
||------6-5-3------6-5-3--|---------8------9-8-6---|-|
     . . . . .  . . . . .    . . . . .  . . . . .

[RIFF 2b]

[Outro 2]
|-------------------|----------------------|
|-------------------|----------------------|
|-------------------|----------------------|
|-------------------|----------------------|
|-3--2--3--4--3--4--|-5-5-4--3--4-4-3--2---|
|-4--3--4--5--4--5--|-6-6-5--4--5-5-4--3---|
  .  .  .  .  .  .    . . .  .  . . .  .

|-------------------|-------------|----|
|-------------------|-------------|----|
|-------------------|-------------|----|
|-------------------|-6--------5--|----|
|-3--2--3--4--3--4--|-3--7--6--2--|----|
|-4--3--4--5--4--5--|----4--3-----|----|
   .  .  .  .  .  .       .  .

[Riff 4]
||-------------------------|-------------------------|------------|
||-------------------------|-------------------------|------------|
||-------------------------|-------------------------|------------|
||-5-4---------5-4---------|-5-4-6-5-7-6-3-2-2-1-----|------------|
||-----6-5-3-4-----6-5-3-4-|---------------------4-3-|-4----3-----|
||-------------------------|-------------------------|-2----1-----|
|  . . . . . . . . . . . . | . . . . . . . . . . . . | .    .    |
||-------------------------|-------------------------|------------|
||-------------------------|-------------------------|------------|
||-------------------------|-------------------------|------------|
||-------------------------|-------------------------|------------|
||-5-4---------5-4---------|-5-4-6-5-7-6-3-2-2-1-----|-4----3-----|
||-----6-5-3-4-----6-5-3-4-|---------------------4-3-|-2----1-----|
   . . . . . . . . . . . .   . . . . . . . . . . . .   .    .

-|-------------------------|-------------------------|-------------------|
-|-------------------------|-------------------------|-------------------|
-|-------------------------|-------------------------|-------------------|
-|-5-4---------5-4---------|-5-4-6-5-7-6-3-2-2-1-----|-3-2---------------|
-|-----6-5-3-4-----6-5-3-4-|---------------------4-3-|-----4-3-3-2-2-1---|
-|-------------------------|-------------------------|-------------------|
 | . . . . . . . . . . . . | . . . . . . . . . . . . | . . . . . . . .  |
-|-------------------------|-------------------------|-------------------|
-|-------------------------|-------------------------|-------------------|
-|-------------------------|-------------------------|-------------------|
-|-------------------------|-------------------------|-------------------|
-|-5-4---------5-4---------|-5-4-6-5-7-6-3-2-2-1-----|-3-2---------------|
-|-----6-5-3-4-----6-5-3-4-|---------------------4-3-|-----4-3-3-2-2-1---|
   . . . . . . . . . . . .   . . . . . . . . . . . .   . . . . . . . .

-|-------------------------|-------------------------|---------------|
-|-------------------------|-------------------------|---------------|
-|-------------------------|-------------------------|---------------|
-|-5-4---------5-4---------|-5-4-6-5-7-6-3-2-2-1-----|---------------|
-|-----6-5-3-4-----6-5-3-4-|---------------------4-3-|-666555666777--|
-|-------------------------|-------------------------|---------------|
 | . . . . . . . . . . . . | . . . . . . . . . . . . | ............ |
-|-------------------------|-------------------------|---------------|
-|-------------------------|-------------------------|---------------|
-|-------------------------|-------------------------|---------------|
-|-------------------------|-------------------------|---------------|
-|-5-4---------5-4---------|-5-4-6-5-7-6-3-2-2-1-----|---------------|
-|-----6-5-3-4-----6-5-3-4-|---------------------4-3-|-666555666777--|
   . . . . . . . . . . . .   . . . . . . . . . . . .   ............

-|-------------------------|-------------------------|------------------|
-|-------------------------|-------------------------|------------------|
-|-------------------------|-------------------------|------------------|
-|-5-4---------5-4---------|-5-4-6-5-7-6-3-2-2-1-----|-3-2--------------|
-|-----6-5-3-4-----6-5-3-4-|---------------------4-3-|-----4-3-3-2-2-1--|
-|-------------------------|-------------------------|------------------|
 | . . . . . . . . . . . . | . . . . . . . . . . . . | . . . . . . . . |
-|-------------------------|-------------------------|------------------|
-|-------------------------|-------------------------|------------------|
-|-------------------------|-------------------------|------------------|
-|-------------------------|-------------------------|------------------|
-|-5-4---------5-4---------|-5-4-6-5-7-6-3-2-2-1-----|-3-2--------------|
-|-----6-5-3-4-----6-5-3-4-|---------------------4-3-|-----4-3-3-2-2-1--|
   . . . . . . . . . . . .   . . . . . . . . . . . .   . . . . . . . .

-|-------------------------|-------------------------|-----|
-|-------------------------|-------------------------|-----|
-|-------------------------|-------------------------|-----|
-|-5-4---------5-4---------|-5-4-6-5-7-6-3-2-2-1-----|-----|
-|-----6-5-3-4-----6-5-3-4-|---------------------4-3-|-----|
-|-------------------------|-------------------------|-----|
. . . . . . . . . . | . . . . . . . . . . . .
-|-------------------------|-------------------------|-----|
-|-------------------------|-------------------------|-----|
-|-------------------------|-------------------------|-----|
-|-------------------------|-------------------------|-----|
-|-5-4---------5-4---------|-5-4-6-5-7-6-3-2-2-1-----|-----|
-|-----6-5-3-4-----6-5-3-4-|---------------------4-3-|-----|
   . . . . . . . . . . . .   . . . . . . . . . . . .
Добавлено: 02.06.2012
Вам также может быть интересно:
Другие материалы по этой песне:

Страница создана 01.05.2012
http://primanota.ru/decrepit-birth/the-infestation-chords.htm
Привет, Гость.
Предлагаем пройти революционный курс по гитаре.
Подарок от PrimaNota.Ru, забирай!