PrimaNota.ru - самый крупный в мире бесплатный архив песенных текстов, аккордов, табулатур и нот


Decrepit Birth - Of Genocide - таба, видео

Регистрация Запомнить меня
Войти через:  Facebook Google Twitter Vk Yandex Mail.ru

Decrepit Birth - Of Genocide - таба, видео

Печатать
Просмотров: 161
Уроки эстрадного вокала в Санкт-Петербурге
     TABULATURE LEGEND:
                   " - tremolo             h - hammer on
                   ~ - vibrato              - slide down
                   p - pull off            / - slide down
                  tr - tremolo picking     ^ - pinch harmonics
                   = - sustained note      b - bend string
                p.m. - palm muting         t - tapping

Tuning is D [D, G, C, F, A, D]

[Intro]
-|-----------------|
-|-----------------|
-|-----------------|
-|-----------------|
-|-2/3-3-2-2/5-5-4-|
-|-3/4-4-3-3/6-6-5-|

[Part 1]
-|-----------------------------------------------------------------------------------|
-|-----------------------------------------------------------------------------------|
-|-----------------------------------------------------------------------------------|
-|-----------------------------------------------------------------------------------|
-|-3-6-5-4-6-5-4"-3-6-5-3"-3-6-5-2"-3-6-5-4-6-5-4-3-2===--5---4===----|
-|-3-6-5-4-6-5----3-6-5----3-6-5----3-6-5-4-6-5-4-3-3===--6---5===-------------------|
   . . . . . . . .    . . .    . . . . . . . . . . . .

[Part 2]
-|----------------------------------------------------------------|
-|----------------------------------------------------------------|
-|----------------------------------------------------------------|
-|----------------------------------------------------------------|
-|-3-6-5-4-6-5-4-3-4"-3-6-5-3"-3-6-5-4-6-5-4-3-6-5-4-3--|
-|-3-6-5-4-6-5-4-3----3-6-5----3-6-5-4-6-5-4-3-6-5-4-3------------|
   . . . . . . . .    . . .    . . . . . . . . . . . .

----------------|
----------------|
----------------|
-4===--8==-7===-|
-2===--6==-5===-|
-2===--6==-5===-|

[Part 3]
-|----------------------------------------------------------|
-|----------------------------------------------------------|
-|----------------------------------------------------------|
-|----------------------------------------------4-4-4-------|
-|-2-5-4-3-2-5-4-3--3-3-3-3-3.....--33333......-2-2-2-------|
-|-2-5-4-3-2-5-4-3------------------------------2-2-2......-|
   . . . . . . . .  . . . . ......  ........... . . .

[Part 4]
-|-------------------------------------------------|
-|-------------------------------------------------|
-|-------------------------------------------------|
-|-------------------------------------------------|
-|-2-5-3==-2===-1==-4===--3===--2-5-3==-3===-2===--|
-|-2-5-4==-3===-2==-5===--4===--2-5-4==-3===-2===--|
   . .                          . .

[Outro]
-|--------------------------|
-|--------------------------|
-|--------------------5--4--|
-|--------------6--5--------|
-|-0-0-4--3-----------------|
-|-----------4--------------|
 | . . tr...................|
-|--------------------------|
-|--------------------------|
-|--------------------------|
-|--------------------------|
-|-2-2-2--5--4--6--5--8--7--|
-|-0-0-2--5--4--------------|
   . .          tr.........

[Part 5]
-|-------------------------------------------------------------------------|
-|-------------------------------------------------------------------------|
-|-------------------------------------------------------------------------|
-|-----------------------------------------5-5---------------------3-3-5-5-|
-|-3/4---------4/5---------5-5-----7-7-8-8-----4-4-8-8-----5-5-------------|
-|-4/5-5-5-5-5-5/6-6-6-6-6-----6-6---------------------5-5-----6-6---------|
 |     . . . .     . . . . . . . . . . . . . . . . . . . . . . . . . . . .
-|-------------------------------------------------------------------------|
-|-------------------------------------------------------------------------|
-|-------------------------------------------------------------------------|
-|-----------------------------------------5-5---------------------3-3-5-5-|
-|-3/4---------4/5---------5-5-----7-7-8-8-----4-4-8-8-----5-5-------------|
-|-4/5-5-5-5-5-5/6-6-6-6-6-----6-6---------------------5-5-----6-6---------|
       . . . .     . . . . . . . . . . . . . . . . . . . . . . . . . . . .

-------------------------------------------------|
-------------------------------------------------|
-------------------------------------------------|
-7-7-----------------------------9-9-------------|
-----4-4-8-8-----5-5-----8-8---------8-8-9-9-----|
-------------6-6-----7-7-----7-7-------------8-8-|
 . . . . . . . . . . . . . . . . . . . . . . . . |
-------------------------------------------------|
-------------------------------------------------|
-----------------------------10101210------------|
-7-7-------------8-8-----1010--------119-108-----|
-----4-4-8-8---------9-9---------------------9-7-|
-------------6-6---------------------------------|
 . . . . . . . . . . . . . . . . . . . . . . . .

[INTRO] [PART 1] [PART 2] [PART 3] [PART 4] [OUTRO] [PART 5]

[Ending]
-|-----------------------------------------------------------------------------------|
-|-----------------------------------------------------------------------------------|
-|-----------------------------------------------------------------------------------|
-|-----------------------------------------------------------------------------------|
-|-3-6-5-4-6-5-4"-3-6-5-3"-3-6-5-2"-3-6-5-4-6-5-4-3-2=========--------|
-|-3-6-5-4-6-5----3-6-5----3-6-5----3-6-5-4-6-5-4-3-3=========....-------------------|
   . . . . . .    . . .    . . .    . . . . . . . .
Добавлено: 05.06.2012
Другие материалы по этой песне:

Страница создана 25.05.2012
http://primanota.ru/decrepit-birth/of-genocide-chords.htm
Привет, Гость.
Предлагаем пройти революционный курс по гитаре.
Подарок от PrimaNota.Ru, забирай!