PrimaNota.ru - самый крупный в мире бесплатный архив песенных текстов, аккордов, табулатур и нот


Deconstruction - Single - таба, видео

Регистрация Запомнить меня
Войти через:  Facebook Google Twitter Vk Yandex Mail.ru

Deconstruction - Single - таба, видео

Печатать
Просмотров: 84
Deconstruction
^ÓSingle^Ô
Music: Avery/Navarro/Murphy
Words: Eric Avery
Transcriber: Thor Rundquist
This is all my own work.  Any comments or suggestions are welcome.

This song has several different parts and rather than tab out the song in
its entirety, I^Òm just tabbing the individual parts.  The breaks in the 
tab do not signify measures, they just how where one part or variation ends 
and the next starts.

Intro and ending riff: Electric guitar/clean. Let ring.
e-------------------------------------7-----7-----]--------
B-----8-----8-----8-----8-----8-----8---8-----8---]-----8--
G---7-----7-----9-----9----10----10------10----10-]---0----
D-9-----9-----9-----9-----9-----9-----------------]-9------
A-------------------------------------------------]--------
E-------------------------------------------------]--------

e-------------------------------------------]--------------
B-----8-----8-----8-----8-----8-----8-----8-]-----8-----8--
G---0-----0-----0-----0-----0-----0-----0---]---7-----7----
D-9-----8-----8-----9-----9-----8-----8-----]-9-----9------
A-------------------------------------------]--------------
E-------------------------------------------]--------------
                    Dip slightly w/ bar while letting     
                    the chords ring still
e--------------------0\/0----0\/0----0\/0----0\/0----------
B-----8-----8-8------0\/0----3\/3----0\/0----3\/3----------
G---9-----9---7------2\/2----0\/0----2\/2----0\/0----------
D-9-----9-----9------2\/2----2\/2----2\/2----2\/2--------5-
A--------------------0\/0----2\/2----0\/0----2\/2------3--
E----------------------------0\/0------------0\/0----5-----
^ÓWe made a pool of sweat again^Å^Ô         Distortion
e-------------------------------------]--------------------
B-------------------------------------]--------------------
G-------------------------------------]--------------------
D-----5-4-------------5-------5-4-----]-----5-------5-4----
A---3-----5---------3-------3-----5---]---3-------3-----5--
E-5---------3-----5-------5---------3-]-5-------5---------3
                                     ^Ó^Åall I did not do^Å^Ô
e-----------------------------------]-5---5--5-----5--/8---
B-----------------------------------]-5---5--5-----5--/8---
G-----------------------------------]-6h7-7^×-6h7p6-6--/8--
D-------------5-------5-4-----------]-0---0--0-----0--/7---
A-5---------3-------3-----5-----5---]------------------0---
E---2~----5-------5---------3-----2~]----------------------

e-8-8-8-8-8---5---5--5-----5--/8-8-8-8-8-8-]               
B-8-8-8-8-8---5---5--5-----5--/8-8-8-8-8-8-]               
G-8-8-8-8-8---6h7-7×-6h7p6-6--/8-8-8-8-8-8-]               
D-7-7-7-7-7---0---0--0-----0--/7-7-7-7-7-7-]               
A-0-0-0-0-0--------------------0-0-0-0-0-0-]               
E------------------------------------------]
^ÓThank you for my Life^Ô
e--------------------------------------------------------  
B--------------------------------------------------------  
G-11/12\11^×-9/11\9^×-7/9\7^×-5/7\5^×------------------------ 
D---------------------------------9/10\9^×-7/9\5^×-5/7/9---  
A--9/10\9---7/9 \7^×-5/7\5^×-3/5\3^×------------------------ 
E---------------------------------7/8 \7^×-5/7\7^×-3/5/7---  

e---------]----------------------------------------]       
B---------]----------------------------------------]       
G---------]-11/12\11^×-9/11/12--/14\12\11--/12\11\9-]       
D-/10\9\7-]----------------------------------------]       
A---------]-9 /10\9---7/9 /10--/12\10\9---/10\9 \7-]       
E-/8 \7\5-]----------------------------------------]

The solo is pretty slow so I^Òm not gonna bother tabbing it.  Dave gets monster 
sustain during the distorted part just by being loud, then he turns of the 
distortion and turns on a phaser and uses an e-bow to keep getting that sustain 
when the song cools down again.   
     
Добавлено: 07.09.2013
Другие материалы по этой песне:
  • Аккорды и текст

Страница создана 07.09.2013
http://primanota.ru/deconstruction/single-chords.htm
Привет, Гость.
Предлагаем пройти революционный курс по гитаре.
Подарок от PrimaNota.Ru, забирай!