PrimaNota.ru - самый крупный в мире бесплатный архив песенных текстов, аккордов, табулатур и нот


Deconstruction - Iris - таба, видео

Регистрация Запомнить меня
Войти через:  Facebook Google Twitter Vk Yandex Mail.ru

Deconstruction - Iris - таба, видео

Печатать
Просмотров: 91
Deconstruction
^ÓIris^Ô
Music: Avery/Navarro/Murphy
Transcriber: Thor Rundquist
This transcription is all my own work. Any comments or suggestions are 
welcome.

Intro: clean. Light attack, let ring.
e----------------------------------------------------------
B-----2---2/3^×--(3)/5-------2---2/3---(3)/5-------2---2/3--
G---2-2---2/4^×--(4)/6-------2---2/4---(4)/6-------2---2/4-
D---------------------7---------------------7--------------
A-0-----------0----------0----------0----------0-----------
E----------------------------------------------------------

e----------------------------------------------------------
B---(4)/5-------2---2/3---(3)/5-------0-----------15p14----
G---(3)/6-------2---2/4---(4)/6---6\4-4-----------------14-
D---------7---------------------------5--------14----------
A-0----------0----------0-------0-----0------0-------------
E----------------------------------------------------------

e---------------------------17-------15------------        
B-17--------14h15p14-----------14-------14-----17^×-       
G-----14-------------14-----------14-------14------        
D--------14-------------14-------------------------        
A--------------------------------------------------        
E--------------------------------------------------        
                         Main riff: Distortion
e----------15----------]-----------------------------------
B-14h15h17----17p15p14-]------15p14-----17--------14h15p14-
G----------------------]------------14------14-------------
D----------------------]---14------------------14----------
A----------------------]-0-0-------------------------------
E----------------------]-----------------------------------
                           *normal ending
e---------17-------15------*---------------15----------]   
B------------14-------14---*-17---14h15h17----17p15p14-]   
G--14-----------14-------14*---------------------------]   
D-----14-------------------*---------------------------]   
A--------------------------*---------------------------]   
E--------------------------*---------------------------]





*Alternate ending before secondary riff.
e----14-----------14----]                                     
B-17----17-----15----15-]                                     
G-----------------------]                                
D-----------------------]
A-----------------------]
E-----------------------]

Secondary riff: distortion, still let it ring
e-------0---------0------0---------0------------0----------
B-------0---------0------2^×--3p2----------------0---------
G-----5-5-------5-5------2^×------2------------5-5-------5-
D---5---------5----------2------------------5---------5----
A-3---------3---------0-------------------3---------3------
E----------------------------------------------------------

e--0----0---0-0---0-0---0---------0---------0-----]        
B--0----2---3-3/5-6-6/7-7---------0---------0-----]        
G--5----2---4-4/6-5-5/7-7-------5-5-------5-5-----]                     
D-------2---0-0---0-0---0-----5---------5---------]         
A-------0---0-0---0-0---0---3---------3-----------]        
E-------------------------------------------------]

There^Òs another ambient section of the song where you can use your 
imagination to make it sound cool. I^Òll show you a piece of it to get 
you started. For effects, use tremelo or a quick phasor, and of course 
reverb, chorus and delay. 

e-0-----0--------0------------------19-----0-------------0-
B-2-------0--------8-------7-----17----------8-------7---0-
G-2------------------9---7---7-----------------9---7---7-6-
D-2------------------------------------------------------7-
A-0------------------------------------------------------0-
E----------------------------------------------------------
     
Добавлено: 04.06.2013
Другие материалы по этой песне:
  • Аккорды и текст

Страница создана 04.06.2013
http://primanota.ru/deconstruction/iris-chords.htm
Привет, Гость.
Предлагаем пройти революционный курс по гитаре.
Подарок от PrimaNota.Ru, забирай!