PrimaNota.ru - самый крупный в мире бесплатный архив песенных текстов, аккордов, табулатур и нот


Deconstruction - Get At Em - таба, видео

Регистрация Запомнить меня
Войти через:  Facebook Google Twitter Vk Yandex Mail.ru

Deconstruction - Get At Em - таба, видео

Печатать
Просмотров: 83
Deconstruction
^ÓGet At ^ÑEm^Ô
Music: Avery/Navarro/Murphy
Words: Eric Avery
Transcriber: Thor Rundquist
This transcription is all my own work.  Any comments or suggestions 
are welcome.

Main Riff: Electric guitar w/distortion
          P.M.--]                      P.M.--]
e----------------------------------------------------------
B----------------------------------------------------------
G-----13~---------13-13~--13------13~-13-------14-14~-14---
D-----12~---------12-12~--12------12~-12-------13-13~-13---
A-----11~---------11-11~--11------11~-11-------12-12~-12---
E-4p0-0----0-0-0--0--0----0--0-0--0---0-0-0-0--0--0---0----
              P.M.--]
e----------------------------------------------------------
B----------------------------------------------------------
G-14\13---13~---------13-13~-13-13--13-13-13--13-13--13----
D-13\12---12~---------12-12~-12-11--11-11-11--11-11--11----
A-12\11---11~---------11-11~-11-12--12-12-12--12-12--12--- 
E-0-----0-0----0-0-0--0--0---0--0---0--0--0---0^×-0---0-----

e-------]--------------------------------------------------
B-------]--------------------------------------------------
G-13-13-]--------------------------------------------------
D-11-11-]-/6----------------/6----------------/6-----------
A-12-12-]---7-----------5-7----7----------5-7----7---------
E-0^×-0--]------0--0--/7----------0--0--/7----------0--0----
                                     layered riff over main
                                      riff at 0:50
                                                 light P.M.
e-----------------------------------]----------------------
B-----------------------------------]----------------------
G-----------------------------------]---9/7-7p6------------
D-----------------------------------]---------------9p7----
A----5-7----4-4-------4-x-x-4-4-4-4-]-------------7-----7--
E-/7-----0--5-5--0-0--5-x-x-5-5-5-5-]-0--------------------

-----------]    Funky hip-hop part(slight swing feel)
e-----------]--7---7-x-x-7----x-x-7---7-x-x-9---x-x-]         
B-----------]--7---7-x-x-7----x-x-7---7-x-x-9---x-x-]          
G-----------]^×-7h9-7-x-x-7----x-x-7h9-7-x-x-7---x-x-]         
D-9p7---9p7-]---------------------------------------]          
A-----7-----]---------------------------------------]          
E-----------]---------------------------------------]

     
Добавлено: 22.06.2013
Другие материалы по этой песне:
  • Аккорды и текст

Страница создана 22.06.2013
http://primanota.ru/deconstruction/get-at-em-chords.htm
Привет, Гость.
Предлагаем пройти революционный курс по гитаре.
Подарок от PrimaNota.Ru, забирай!