PrimaNota.ru - самый крупный в мире бесплатный архив песенных текстов, аккордов, табулатур и нот


Decoder - Transcendence - таба, видео

Регистрация Запомнить меня
Войти через:  Facebook Google Twitter Vk Yandex Mail.ru

Decoder - Transcendence - таба, видео

Печатать
Просмотров: 118
DECODER - TRANSCENDENCE SELF TITLED ALBUM

Tuning - Drop B

Intro - Both guitars
|-------5----------5----------5----------5-----|
|-------6----------6----------6----------6-----|
|-------7----------7----------7----------7-----|
|----------------------------------------------|
|-8-8-8---8-8-8-8-8--8-8-8-8-8--8-8-8-8-8------|
|-5-5-5---5-5-5-5-5--5-5-5-5-5--5-5-5-5-5------|

|-----------------------------------------------|
|-----------------------------------------------|
|-----------------------------------------------|
|-7-7-7-7-7-7-7-7-7--121212121212---------------|
|-3-3-3-3-3-3-3-3-3---8-8-8-8-8-8---1212121212--|
|-3-3-3-3-3-3-3-3-3---8-8-8-8-8-8---8-8-8-8-8---|

|-------5----------5----------5----------5-----|
|-------6----------6----------6----------6-----|
|-------7----------7----------7----------7-----|
|----------------------------------------------|
|-8-8-8---8-8-8-8-8--8-8-8-8-8--8-8-8-8-8------|
|-5-5-5---5-5-5-5-5--5-5-5-5-5--5-5-5-5-5------|

|-----------------------------------------------|
|-----------------------------------------------|
|-----------------------------------------------|
|-7-7-7-7-7-7-7-7-7--121212121212---------------|
|-3-3-3-3-3-3-3-3-3---8-8-8-8-8-8---1212121212--|
|-3-3-3-3-3-3-3-3-3---8-8-8-8-8-8---8-8-8-8-8---|

|---------------------------------------|
|---------------------------------------|
|---------------------------------------|
|---------------------------------------|
|-12-12-12-12-12-----10-10-10-10-10-10--|
|--8--8--8--8--8------7--7--7--7--7--7--|

|-------5----------5----------5----------5-----|
|-------6----------6----------6----------6-----|
|-------7----------7----------7----------7-----|
|----------------------------------------------|
|-8-8-8---8-8-8-8-8--8-8-8-8-8--8-8-8-8-8------|
|-5-5-5---5-5-5-5-5--5-5-5-5-5--5-5-5-5-5------|

|-----------------------------------------------|
|-----------------------------------------------|
|-----------------------------------------------|
|-7-7-7-7-7-7-7-7-7--121212121212---------------|
|-3-3-3-3-3-3-3-3-3---8-8-8-8-8-8---1212121212--|
|-3-3-3-3-3-3-3-3-3---8-8-8-8-8-8---8-8-8-8-8---|


|------------------------------------------------------|
|------------------------------------------------------|
|------------------------------------------------------|
|------------------------------------------------------|
|-8-8-8-8-----10-10-10-10-10-10----12121212121212121212|
|-5-5-5-5-----7--7--7--7--7--7-----8-8-8-8-8-8-8-8-8-8-|

Verse - Rhythm guitar
|-------------------------------------------|
|------------------------5--5-5-------------|
|-9--9--9--9-9--9-9--xx--5--5-5----2--2-2---|
|-7--7--7--7-7--7-7--xx--x--x-x----x--x-x---|
|-5--5--5--5-5--5-5--xx--3--3-3----1--1-1---|
|-------------------------------------------|

Verse - Leads
|-------------------------|
|-------------------------|
|-9--10-------------------|
|--------7--5-5\7---------|
|-------------------------|
|-------------------------|

|-------------------------|
|-------------------------|
|-9--10--2--------2-2-----|
|--------x--------x-x-----|
|--------1--------1-1-----|
|-------------------------|

|--------------------------------------------------|
|--------------------------------------------------|
|-2~--------2~--------5-5-5-5-5---xxx-2~-------2~--|
|-x~--------x~--------x-x-x-x-x---xxx-x~-------x~--|
|-1~--------1~--------3-3-3-3-3---xxx-1~-------1~--|
|--------------------------------------------------|

Pre & Chorus jam riff
|---------------------------------------------|
|---------------------------------------------|
|---2\5p0-5\7---------------------------------|
|--------------0----5--5-----7--7------2--2---|
|-1-------------------------------------------|
|------------5--5\7--7--xx-8--8--xx--3--3-----|

|-------------------------|
|-------------------------|
|-------------------------|
|--3--3------2--2---------|
|-------------------------|
|-5--5--xx--3--3----------|

Verse - Rhythm guitar
|-------------------------------------------|
|------------------------5--5-5-------------|
|-9--9--9--9-9--9-9--xx--5--5-5----2--2-2---|
|-7--7--7--7-7--7-7--xx--x--x-x----x--x-x---|
|-5--5--5--5-5--5-5--xx--3--3-3----1--1-1---|
|-------------------------------------------|

Verse - Leads
|-------------------------|
|-------------------------|
|-9--10-------------------|
|--------7--5-5\7---------|
|-------------------------|
|-------------------------|

Transition to next lead
|------------------------------------|
|------------------------------------|
|--9--9--9--9--9-----2--2--2---------|
|--x--x--x--x--x-----x--x--x---------|
|--x--x--x--x--x-----1--1--1---------|
|-10-10-10-10-10---------------------|


|---------------------------------------------|
|---------------------------------------------|
|-9h-10-9-------12-12-12\9--x-x--2-2-2-2-2----|
|---------7--5--------------x-x--x-x-x-x-x----|
|---------------------------x-x--1-1-1-1-1----|
|---------------------------------------------|


|-----------------------------------------------------------|
|-----------------------------------------------------------|
|-2-2-2-2-2----5-5-5-5-5---2--7-7-7-7-7---2--14-14-14-14-14-|
|-x-x-x-x-x----x-x-x-x-x---x--x-x-x-x-x---x--x--x--x--x--x--|
|-1-1-1-1-1----3-3-3-3-3---1\-5-5-5-5-5---1\-12-12-12-12-12-|
|-----------------------------------------------------------|
Добавлено: 28.03.2012
Вам также может быть интересно:
Другие материалы по этой песне:

Страница создана 28.03.2012
http://primanota.ru/decoder/transcendence-chords.htm
Привет, Гость.
Предлагаем пройти революционный курс по гитаре.
Подарок от PrimaNota.Ru, забирай!