PrimaNota.ru - самый крупный в мире бесплатный архив песенных текстов, аккордов, табулатур и нот


Declan Galbraith - Missing You - таба, видео

Регистрация Запомнить меня
Войти через:  Facebook Google Twitter Vk Yandex Mail.ru

Declan Galbraith - Missing You - таба, видео

Печатать
Просмотров: 99
Hi :)
I figured out the intro/verse for Declan's song "Missing You"
Enjoy:)

e--------------------------------------------------------|
B--------------------------------------------------------|
G-----2---2----------2---2----------2---2----------2-0---|
D-0-4---4---2-2--0-4---4---2-2--0-4---4---2-2--0--4----4-|
A--------------------------------------------------------|
E--------------------------------------------------------|

e---------------------------------------------------------|
B----------------------------------------------------5----|
G-----2---2----------2---2----------2---2--------2-4---4-2|
D-0-4---4---2-2--0-4---4---2-2--0-4---4---2-2--4----------|
A---------------------------------------------------------|
E---------------------------------------------------------|

and that's basically repeated through the verse (except for 2 parts - "and there's a 
that's raging through my frozen heart tonight" and "and there's a heart that's breaking 
this long distance line tonight" for the first verse, etc...)

Every time I think of you
I always catch my breath
and I'm still standing here
And you're miles away
and I'm wonderin' why you left
and there's a storm that's raging
Through my frozen heart tonight

I hear your name in certain circles
And it always makes me Smile
I spend my time thinkin' about you
And it's almost driving me wild
and there's a heart that's breaking
Down this long distance Line tonight

I ain't missing you at all
Since you've been gone away
I ain't missing you
No matter what I might say

there
Добавлено: 01.12.2013
Вам также может быть интересно:
Другие материалы по этой песне:
  • Аккорды и текст

Страница создана 01.12.2013
http://primanota.ru/declan-galbraith/missing-you-chords.htm
Привет, Гость.
Предлагаем пройти революционный курс по гитаре.
Подарок от PrimaNota.Ru, забирай!