PrimaNota.ru - самый крупный в мире бесплатный архив песенных текстов, аккордов, табулатур и нот


Deckard - What Reason - текст песни, бас-таба, видео

Регистрация Запомнить меня
Войти через:  Facebook Google Twitter Vk Yandex Mail.ru

Deckard - What Reason - текст песни, бас-таба, видео

Печатать
Просмотров: 100
What Reason - Bass Tab
By Deckard
From the album Stereodreamscene

I think this is pretty close, hoping to get conversation started if there are
any Deckard/Baby Chaos fans out there?

INTRO
G|------------------|
D|------------------|
A|-7^--7-7-7-7-7-7--|
E|------------------|

G|------------|------------|------------|------------|
D|------------|------------|------------|------------|
A|-7777-7777--|------------|------------|------------|
E|------------|-7777-7777--|-9999-9997--|-5555-5555--|


VERSE
G|------------|------------|------------|------------|
D|------------|------------|------------|------------|
A|-7777-7777--|-7777-7777--|-4444-4444--|-7777-7777--|
E|------------|------------|------------|------------|

G|------------|------------|------------|------------|
D|------------|------------|------------|------------|
A|------------|------------|------------|------------|
E|-5555-4444--|-5555-4444--|-0000-0000--|-0000-0000--|

G|------------|------------|------------|------------|
D|------------|------------|------------|------------|
A|-7777-7777--|-7777-7777--|-4444-4444--|-7777-7777--|
E|------------|------------|------------|------------|

G|-------------------------|-------------------------|------------|------------|
D|-------------------------|-------------------------|------------|------------|
A|-12-12-12-12-11-11-11-11-|-12-12-12-12-11-11-11-11-|-7777-7777--|-7777-7777--|
E|-------------------------|-------------------------|------------|------------|


CHORUS
G|------------|------------|------------|------------|
D|------------|------------|------------|------------| 
A|-7777-7777--|------------|------------|------------|
E|------------|-7777-7777--|-9999-9997--|-5555-5555--|

G|------------|------------|------------|------------|
D|------------|------------|------------|------------| 
A|------------|------------|------------|------------|
E|-0000-0005/-|-7777-7777--|-9999-9997--|-5555-5555--|

G|------------|--------------------------|------------|--------------------------|
D|------------|--------------------------|------------|--------------------------|
A|------------|-/12-12-12-12-12-12-12-12-|------------|-/12-12-12-12-12-12-12-12-|
E|-5555-5555--|--------------------------|-5555-5555--|--------------------------|

G|--------------|------------|------------|------------|
D|--------------|------------|------------|------------|
A|--------------|------------|------------|------------|
E|-5555-5\4/9\7-|-7777-767/--|-9999-9999--|-9999-9999--|

G|------------|------------|------------|------------|------------|------------|
D|------------|------------|------------|------------|------------|------------|
A|------------|------------|---7----7---|---7----7---|---7----7---|---7----7---|
E|-5555-5555--|-7777-7777--|-00-0-00-0--|-00-0-00-0--|-00-0-00-0--|-00-0-00-0--|

VERSE
CHORUS (first part 4x)
END
Добавлено: 13.08.2015
Другие материалы по этой песне:
  • Аккорды и текст

Страница создана 26.02.2012
http://primanota.ru/deckard/what-reason-chords.htm
Привет, Гость.
Предлагаем пройти революционный курс по гитаре.
Подарок от PrimaNota.Ru, забирай!