PrimaNota.ru - самый крупный в мире бесплатный архив песенных текстов, аккордов, табулатур и нот


Decibel - Nagin - таба, видео

Регистрация Запомнить меня
Войти через:  Facebook Google Twitter Vk Yandex Mail.ru

Decibel - Nagin - таба, видео

Печатать
Просмотров: 112
DECIBEL-NAGIN
TABBED BY-VISHAL
E-MAIL:cutevishal.007@gmail.com


note:this it the most accrate tabs of decibel 
     naaginplay this whilw tapping on 12th fret
     or just use pick over 20th fret..

LISTEN TO SONG FOR PROPER TIMEING


intro:on base
________________________________________________
G|-----------------------------------------|
D|-----------------------------------------|
A|-----------------------------------------|
E|-3---3-3-3-3-3--------0---0-0-0-0-0------|

base will play this as whole in song
with some change & i dont know that....
coz i play lead guitar...

_________________________________________________
electric guitar with high GAIN and frequency
and play in very high speed in STANDARD TUNING..
_________________________________________________



vrese1:
_________________________________________________
e|-------7-7-----------------------7-7----------|
B|-7-7-9-----11-9-7----------7-7-9-----11-9-7---|
G|----------------------------------------------|
D|----------------------------------------------|
A|----------------------------------------------|
E|----------------------------------------------|


e|----------------------------------------------|
B|--9-10-9-7--9-10-9-7--9-9-9-9---7-9-7-5-------|
G|----------------------------------------------|
D|----------------------------------------------|
A|----------------------------------------------|
E|----------------------------------------------|


e|----------------------------------------------|
B|-7-7-9-9--10-10-9-9-7-7-7-7-7-7---------------|
G|----------------------------------------------|
D|----------------------------------------------|
A|----------------------------------------------|
E|----------------------------------------------|


e|----------------------------------------------|
B|-9-7-10-7-9-5-7-5--9-7-10-7-9-5-7~~-----------|
G|--------------------------------------------|X2
D|----------------------------------------------|
A|----------------------------------------------|
E|----------------------------------------------|

_________________________________________________

repeat verse1

verse2:
_________________________________________________
e|----------------------------------------------|
B|-5-7-8--7-9-10--9-11-12--11-13-14~~~----------|
G|----------------------------------------------|
D|----------------------------------------------|
A|----------------------------------------------|
E|----------------------------------------------|


e|----------------------------------------------|
B|-14-13-11-x4---13-11-13-9-9-9-9-9-9-9-9-------|
G|----------------------------------------------|
D|----------------------------------------------|
A|----------------------------------------------|
E|----------------------------------------------|


e|----------------------------------------------|
B|-9-9-9-11-13-13-14-14-13-13-11-11-12-12-------|
G|----------------------------------------------|
D|----------------------------------------------|
A|----------------------------------------------|
E|----------------------------------------------|


e|----------------------------------------------|
B|-11-11-9-9-12-12-9-9-11-11-9-9-9-9-9-9-9------|
G|----------------------------------------------|
D|----------------------------------------------|
A|----------------------------------------------|
E|----------------------------------------------|


e|----------------------------------------------|
B|-9-9-11-13-13-14-14-13-13-11-11-12-12---------|
G|----------------------------------------------|
D|----------------------------------------------|
A|----------------------------------------------|
E|----------------------------------------------|


e|----------------------------------------------|
B|--11-9-9-12-12-9-9-11-11-9-9-9---11-9-10-9-7--|
G|----------------------------------------------|
D|----------------------------------------------|
A|----------------------------------------------|
E|----------------------------------------------|


e|----------------------------------------------|
B|-9-9-10-10-9-9-7-7-9~~~~~~~~~~----------------|
G|----------------------------------------------|
D|----------------------------------------------|
A|----------------------------------------------|
E|----------------------------------------------|
_________________________________________________

verse1:repeat X2


 then

_________________________________________________
bridge:
_________________________________________________
e|-9-9-10-10-9-9-10-10-9-9-10-10-9-9--7-5-------|
B|----------------------------------------------|
G|----------------------------------------------|
D|----------------------------------------------|
A|----------------------------------------------|
E|----------------------------------------------|


e|-7-7-9-9-7-7-9-9--7-9-7-5---------------------|
B|--------------------------7-7-----------------|
G|----------------------------------------------|
D|----------------------------------------------|
A|----------------------------------------------|
E|----------------------------------------------|


e|----------------------------------------------|
B|-9-7-10-7-9-5-7-5--9-7-10-7-9-5-7~~-----------|
G|--------------------------------------------|X2
D|----------------------------------------------|
A|----------------------------------------------|
E|----------------------------------------------|

_________________________________________________

now with DOUBLE PADDLE DRUM


verse1:
bridge:

outro: very fast


e|-------7-7-----------------------7-7----------|
B|-7-7-9-----11-9-7----------7-7-9-----11-9-7---|
G|----------------------------------------------|
D|----------------------------------------------|
A|----------------------------------------------|
E|----------------------------------------------|


                            slow down
e|----------------------------------------------|
B|--9-10-9-7--9-10-9-7--9~~-7---9---7---5-------|
G|----------------------------------------------|
D|----------------------------------------------|
A|----------------------------------------------|
E|----------------------------------------------|


slow down
e|----------------------------------------------|
B|-7--7--9--9--10--10--9--9--7--7--7--7--7~~~~~~|
G|----------------------------------------------|
D|----------------------------------------------|
A|----------------------------------------------|
E|----------------------------------------------|
_________________________________________________

ENJOY AND DONT THANK OUT ME!!!!
send me error if any to my e-mail ID
cutevishal.007@gmail.com

Добавлено: 10.05.2012
Вам также может быть интересно:
Другие материалы по этой песне:

Страница создана 11.03.2012
http://primanota.ru/decibel/nagin-chords.htm
Привет, Гость.
Предлагаем пройти революционный курс по гитаре.
Подарок от PrimaNota.Ru, забирай!