PrimaNota.ru - самый крупный в мире бесплатный архив песенных текстов, аккордов, табулатур и нот


Decemberists - A Bower Scene - аккорды и текст, таба, видео

Регистрация Запомнить меня
Войти через:  Facebook Google Twitter Vk Yandex Mail.ru

Decemberists - A Bower Scene - аккорды и текст, таба, видео

Печатать
Просмотров: 88
Уроки эстрадного вокала в Санкт-Петербурге
Авторы музыки: Colin Meloy
Авторы текста: Colin Meloy
A Bower Scene
Decemberists
Artist: The Decemberists
Song: A Bower Scene
Album: The Hazards of Love
Tabbed by: Don Tago
Email: recebedou@yahoo.com


Tuning: Drop D - DADGBe


Chords Used:
   DADGBe
Bb:-133--
C: -355--
D: 000---
F: 333---
G: 555---



Intro:

Start with: D (alone), then jump in with--->

Riff 1:
    D
e|----5----3----0--------|
B|-------------------3---|
G|--5----5----5----5-----| then,
D|-----------------------|
A|-----------------------|
D|-----------------------|

Riff 2:
    D
e|----5----7----8----7---|
B|-----------------------|
G|--5----7----9----7-----| 
D|-----------------------|
A|-----------------------|
D|-----------------------|

Verse 1 chords:                                          
F                               G                  D(with Riff 1)   
  
Добавлено: 04.09.2013
Другие материалы по этой песне:
  • Аккорды и текст

Страница создана 25.07.2013
http://primanota.ru/decemberists/a-bower-scene-chords.htm
Привет, Гость.
Предлагаем пройти революционный курс по гитаре.
Подарок от PrimaNota.Ru, забирай!