PrimaNota.ru - самый крупный в мире бесплатный архив песенных текстов, аккордов, табулатур и нот


Decemberadio - Gasoline - таба, видео

Регистрация Запомнить меня
Войти через:  Facebook Google Twitter Vk Yandex Mail.ru

Decemberadio - Gasoline - таба, видео

Печатать
Просмотров: 94
-------------------------------------------------------------------------------
                             GASOLINE--Decemberadio
-------------------------------------------------------------------------------
Tabbed by: Axel Karetna
Email: metalhead865@gmail.com
This song is pretty cool. It's easy but it gives your left hand a good workout.
Tuning: Standard

(The song starts off with some feedback.)
Pre-intro (easy enough)
e|---------------------------------------------------------------------------|
B|---------------------------------------------------------------------------|
G|---------------------------------------------------------------------------|
D|---------------------------------------------------------------------------|
A|---------------------------------------------------------------------------|
E|-xxx-0h1-xxx-0h1-xxx-0h1---------------------------------------------------|
Intro/Main Riff
e|---------------------------------------------------------------------------|
B|---------------------------------------------------------------------------|
G|---------------------------------------------------2-----2-----------------|
D|-2-------------------------------------------------0-----2-----(repeat)----|
A|-2-----------0-2-------------0-2-------------0-2-----4-2-0-----------------|
E|-0-0---0-2-3-----3b5p0-0-2-3-----3b5p0-0-2-3-----3---------3-2-------------|
Pre-verse                                               (Verse 1 just has this.)
e|-------------------------------------------3\2p0-3-|-3\2p0-3---------------|
B|-------------------------------------------3\2p0-3-|-3\2p0-3---------------|
G|---------------------------------------------------|-----------------------|
D|---------------------------------------------------|-----------------------|
A|-2-2-2---------2-2---------2-2---------------------|-----------------------|
E|-0-0-0-3-0-5-0-0-0-3-0-5-0-----3-0-5-0-0-0---------|-----------------------|
Chorus 2 (Chorus 1 is just silence) (notes are played in constant 8th note pattern)
e|---------------------------------------------------------------------------|
B|--8---6---4---3---3-6-8---6---4---3----------------------------------------|
G|--9---7---6---5---5-7-9---7---6---5---4------------------------------------|
D|--9---7---6---5---5-7-9---7---6---5---4------------------------------------|
A|--7---5---4---3---3-5-7---5---4---3---2---2-2-1-0--------------------------|
E|--------------------------------------------------3------------------------|
(the noise in the song makes it hard to hear the solo, so I just improvise. Play and 
an E power chord at the end of the solo.)


Breakdown (after the children sing “ahhh, gasoline!” twice, the guitar comes in.)
e|---------------------------------------------------------------------------|
B|---------------------------------------------------------------------------|
G|-9-9999-9997-7777-7776-6666-6665-5-5-5-5-5-5-5-----------------------------|
D|-9-9999-9997-7777-7776-6666-6665-5-5-5-5-5-5-5-----------------------------|
A|-7-7777-7775-5555-5554-4444-4443-3-3-3-3-3-3-3-----------------------------|
E|---------------------------------------------------------------------------|
Outro
e|---------------------------------------------------------------------------|
B|---------------------------------------------------------------------------|
G|---------------------------------------------------------------------------|
D|---------------------------------------------------------------------------|
A|-2-2-2---------2-2---------------------------------------------------------|
E|-0-0-0-3-0-5---0-0-3-0-5---------------------------------------------------|

************************************

| /   slide up
| \   slide down
| h   hammer-on
| p   pull-off
| ~   vibrato
| +   harmonic
| x   Mute note
| b   Bend
| pb  Pre-bend
| br  Bend release
| pbr Pre-bend release
| brb Bend release bend
| pm()Palm mute
************************************
And that's it. Hope this works for you.
END
Добавлено: 22.07.2012
Другие материалы по этой песне:
  • Аккорды и текст

Страница создана 22.07.2012
http://primanota.ru/decemberadio/gasoline-chords.htm
Привет, Гость.
Предлагаем пройти революционный курс по гитаре.
Подарок от PrimaNota.Ru, забирай!