PrimaNota.ru - самый крупный в мире бесплатный архив песенных текстов, аккордов, табулатур и нот


December Avenue - I Believe In Love - таба, видео

Регистрация Запомнить меня
Войти через:  Facebook Google Twitter Vk Yandex Mail.ru

December Avenue - I Believe In Love - таба, видео

Печатать
Просмотров: 117
INTRO
Guitar 1
Clean
e|-----------------------5|
B|------------------------|
G|-6s7s6---9---------6h7--|
D|-------7---9s11-7-------|
A|------------------------|
E|------------------------|

Clean
e|-----------------9h12p9---|
B|--------------------------|
G|-6s7s6---9----------------|
D|-------7---9s11-7---------|
A|--------------------------|
E|--------------------------|

Clean
e|--------------------------|
B|--------------------------|
G|-6s7s6---9---------6s7s6--|
D|-------7---9s11-7---------|
A|--------------------------|
E|--------------------------|

Distortion
e|-----12-----------|
B|-9s10--12-10-9----|
G|---------------7--|
D|------------------|
A|------------------|
E|------------------|

Guitar 1 - Clean (Loop)
e|--------------------------|
B|-10-9-10-9-10-9-10-9-10-9-| 
G|--------------------------|
D|--------------------------|
A|--------------------------|
E|--------------------------|

Guitar 2 - Acoustic
*Plucking Sa Chords*
Bm7 - C#m7 - D
Bm7 - C#m7 - F#m
Bm7 - C#m7 - D
F#m - E - D

Guitar 1 Distortion
e|---------------------------------|
B|--------------10-10-9-10-9-------|
G|-9-9-9--11-11-------------11-9-9-|
D|---------------------------------| 
A|---------------------------------|
E|---------------------------------|
*Repeat 3 times*

Guitar 2 - Acoustic
*Plucking Sa Chords*
C#m7 - D - F# - E 

*Repeat 3 times*

Guitar 1
Distortion
e|-----12-----------|
B|-9s10--12-10-9----|
G|---------------7--|
D|------------------|
A|------------------|
E|------------------|

VERSE
*Power Chords Sa Lead* Palm Mute
*Plucking Sa Chords*
C#m7 - D
What am I looking for the rest of my life?
What am I waiting for, I've wasted the time
You stole my eyes but then I only realized
I'm in love

C#m7 - D
How would I let you know if I can't define
I know it's wonderful but I'm out of line
The way your lips are whispering into my mind
I'm so blind

Bm7 - C#m7 - D
I know that I belong to you
Bm7 - C#m7 - F#m
I'll make the things you wanna do
Bm7 - C#m7 - D
Together we can make it through
F#m - E - D
And we'll survive

C#m7 - D - F# - E 
I believe in love and I've never been so alive
you capture me deep within
I believe in love and I've never been high

F#m - D - E
For I'm in love..

Solo
e|-17s18s17-----------------|
B|---------17-19------------|
G|--------------18----------|
D|----------------19--------|
A|--------------------------|
E|--------------------------|

e|--------------------------|
B|--------------------------|
G|-13-14-13-----------------|
D|---------14-16------------|
A|--------------15-12-------|
E|--------------------------|

e|--------------------------|
B|-----------------17-------|
G|------14------14---19s19--|
D|--------14s16-------------|
A|-12-14--------------------|
E|--------------------------|

e|-----12--------17-|
B|-9s10--12-10-9----|
G|------------------|
D|------------------|
A|------------------|
E|------------------|

Haha Try Lang.......
:))
*Di pa dyan kasama ung mga semi-lead sa verse parts :DD
rock \m/
Добавлено: 15.08.2013
Другие материалы по этой песне:
  • Аккорды и текст

Страница создана 15.08.2013
http://primanota.ru/december-avenue/i-believe-in-love-chords.htm
Привет, Гость.
Предлагаем пройти революционный курс по гитаре.
Подарок от PrimaNota.Ru, забирай!