PrimaNota.ru - самый крупный в мире бесплатный архив песенных текстов, аккордов, табулатур и нот


Decayed Flesh - A Misanthrofias Mind - таба

Регистрация Запомнить меня
Войти через:  Facebook Google Twitter Vk Yandex Mail.ru

Decayed Flesh - A Misanthrofias Mind - таба

Печатать
Просмотров: 74
Уроки эстрадного вокала в Санкт-Петербурге
A Misanthropias Mind Tab

Riff 1                                               _
|-------------------------------------------------|    |
|-------------------------------------------------|    |
|-------------------------------------9-9-9-9-9-9-|    |
|-7-7-7-7-7-7-5-5-5-5-5-5-9-9-9-9-9-9-9-9-9-9-9-9-|    |
|-7-7-7-7-7-7-5-5-5-5-5-5-9-9-9-9-9-9-7-7-7-7-7-7-|    |
|-5-5-5-5-5-5-3-3-3-3-3-3-7-7-7-7-7-7-------------|x4  |
                                                       |
Riff 2                                                 |x2
|-------------------------------------------------|    |
|-------------------------------------------------|    |
|-------------------------------------5-5-5-5-5-5-|    |
|-7-7-7-7-7-7-9-9-9-9-9-9-5-5-5-5-5-5-5-5-5-5-5-5-|    |
|-7-7-7-7-7-7-9-9-9-9-9-9-5-5-5-5-5-5-3-3-3-3-3-3-|    |
|-5-5-5-5-5-5-7-7-7-7-7-7-3-3-3-3-3-3-------------|x4 _|


Riff 3
|---------------------------------------------------|
|---------------------------------------------------|
|---------------------------3-5-6-5-3---------------|
|---------------3-5-6-5-3-3-------------6-5-3-------|
|---3-5-6-5-3-3-------------------------------6-5-3-|
|-3-------------------------------------------------|x2

|---------------------------------------------------|
|---------------------------------------------------|
|----------------------------5-7-8-7-5--------------|
|----------------5-7-8-7-5-5------------8-7-5-------|
|----5-7-8-7-5-5------------------------------8-7-5-|
|-5-------------------------------------------------|x2

|-------------------------------------------------------|
|-------------------------------------------------------|
|------------------------------7-9-10-9-7---------------|
|-----------------7-9-10-9-7-7------------10-9-7--------|
|---7-9-10-9-7-7---------------------------------10-9-7-|
|-7-----------------------------------------------------|x2

gitar 2 plays this together with riff 3
|-------------------------|
|-------------------------|
|-------------------------|
|-7-7-7-7-7-7-7-7-7-7-7-7-|
|-7-7-7-7-7-7-7-7-7-7-7-7-|
|-5-5-5-5-5-5-5-5-5-5-5-5-|



Riff 4
|-------------------------------------------------|
|-------------------------------------------------|
|-------------------------------------------------|
|-7-7-7-7-7-7-7-7-7-7-7-7-5-5-5-5-5-5-5-5-5-5-5-5-|
|-7-7-7-7-7-7-7-7-7-7-7-7-5-5-5-5-5-5-5-5-5-5-5-5-|
|-5-5-5-5-5-5-5-5-5-5-5-5-3-3-3-3-3-3-3-3-3-3-3-3-|X4


Verse 1
|---------------|
|---------------|
|---------------|
|-3------6------|
|-3------6------|
|-1(x24)-4(x24)-| x4

Riff 6
|-------------------------------------------------|
|-------------------------------------------------|
|-------------------------------------------------|
|-7-7-7-7-7-7-7-7-7-7-7-7-5-5-5-5-5-5-5-5-5-5-5-5-|
|-7-7-7-7-7-7-7-7-7-7-7-7-5-5-5-5-5-5-5-5-5-5-5-5-|
|-5-5-5-5-5-5-5-5-5-5-5-5-3-3-3-3-3-3-3-3-3-3-3-3-|X4

Verse 2
|---------------|
|---------------|
|---------------|
|-3------6------|
|-3------6------|
|-1(x24)-4(x24)-| x4

Riff 7
|-------------------------------------------------|
|-------------------------------------------------|
|-------------------------------------------------|
|-7-7-7-7-7-7-7-7-7-7-7-7-5-5-5-5-5-5-5-5-5-5-5-5-|
|-7-7-7-7-7-7-7-7-7-7-7-7-5-5-5-5-5-5-5-5-5-5-5-5-|
|-5-5-5-5-5-5-5-5-5-5-5-5-3-3-3-3-3-3-3-3-3-3-3-3-|X4


Verse 3
|---------------|
|---------------|
|---------------|
|-3------6------|
|-3------6------|
|-1(x24)-4(x24)-| x4


Riff 8
|-------------------------------------------------|
|-------------------------------------------------|
|-------------------------------------------------|
|-7-7-7-7-7-7-7-7-7-7-7-7-5-5-5-5-5-5-5-5-5-5-5-5-|
|-7-7-7-7-7-7-7-7-7-7-7-7-5-5-5-5-5-5-5-5-5-5-5-5-|
|-5-5-5-5-5-5-5-5-5-5-5-5-3-3-3-3-3-3-3-3-3-3-3-3-|X4

Verse 4
|---------------|
|---------------|
|---------------|
|-3------6------|
|-3------6------|
|-1(x24)-4(x24)-| x4


Riff 9
|-------------------------|
|-------------------------|
|-------------------------|
|-5-5-5-5-5-5-5-5-5-5-5-5-|
|-5-5-5-5-5-5-5-5-5-5-5-5-|
|-3-3-3-3-3-3-3-3-3-3-3-3-|x2

By Teggel(Guitar) Of Decayed Flesh
any corrections are welcome on lekemskin@hotmail.com


     
Добавлено: 21.06.2013
Другие материалы по этой песне:
  • Аккорды и текст

Страница создана 21.06.2013
http://primanota.ru/decayed-flesh/a-misanthrofias-mind-chords.htm
Привет, Гость.
Предлагаем пройти революционный курс по гитаре.
Подарок от PrimaNota.Ru, забирай!