PrimaNota.ru - самый крупный в мире бесплатный архив песенных текстов, аккордов, табулатур и нот


Decade - Rate Of Fire - таба, видео

Регистрация Запомнить меня
Войти через:  Facebook Google Twitter Vk Yandex Mail.ru

Decade - Rate Of Fire - таба, видео

Печатать
Просмотров: 106
RATE OF FIRE
As recorded by Decade
(From the 2007 EP I KNOW YOUR LYING)

Transcribed by Chris Hurley
Arranged by Decade
www.myspace.com/decade10music   


(E A D G B E)

  Q=100
 4/4
  Gtr I
   ~~~~~~~~~~~~~~~~~           ~~~
   H.      Q    +H.      Q     H.       Q     +H.      Q
|-------------|-------------|--------------|---------------|
|-------------|-------------|--------------|---------------|
|-10-------9--|-(9)---------|-12-------10--|-(10)----------|
|--0-------0--|-(0)---------|--0--------0--|--(0)----------|
|-------------|-------------|--------------|---------------|
|-------------|-------------|--------------|---------------|


 4/4
   ~~~~~~~~~~~~~~~~~           ~~~
   H.      Q    +H.      Q     H.       Q     +H.      Q
|-------------|-------------|--------------|---------------|
|-------------|-------------|--------------|---------------|
|-10-------9--|-(9)---------|-12-------10--|-(10)----------|
|--8-------8--|-(8)---------|--8--------8--|--(8)----------|
|-------------|-------------|--------------|---------------|
|-------------|-------------|--------------|---------------|


 4/4
   ~~~~~~~~~~~~~~~~~           ~~~
   H.      Q    +H.      Q     H.       Q     +H.      Q
|-------------|-------------|--------------|---------------|
|-------------|-------------|--------------|---------------|
|-10-------9--|-(9)---------|-12-------10--|-(10)----------|
|--0-------0--|-(0)---------|--0--------0--|--(0)----------|
|-------------|-------------|--------------|---------------|
|-------------|-------------|--------------|---------------|


 4/4
   ~~~~~~~~~~~~~~~~~           ~~~
   H.      Q    +H.      Q     H.       Q     +Q   H.
|-------------|-------------|--------------|-------5-----|
|-------------|-------------|--------------|-------6-----|
|-10-------9--|-(9)---------|-12-------10--|-(10)--7-----|
|--8-------8--|-(8)---------|--8--------8--|--(8)--7-----|
|-------------|-------------|--------------|-------5-----|
|-------------|-------------|--------------|-------------|


  H=H          Q=110
               Gtr II
  +W           S S  S   S S S S S  S S S  S S S S  S
|-(5)--------|---------------------------------------|
|-(6)--------|---------------------------------------|
|-(7)--------|-----10-------9-----12-----10-----9h10-|
|-(7)--------|-0-0------0-0---0-0----0-0----0-0------|
|-(5)--------|---------------------------------------|
|------------|---------------------------------------|
|
|              Gtr III
|              S S  H..
|------------|---------------------------------------|
|------------|---------------------------------------|
|------------|---------------------------------------|
|------------|-7-7-----------------------------------|
|------------|-5-5-----------------------------------|
|------------|---------------------------------------|


  S S  S   S S S S S  S S S  S S S S  S
|-----------------------------------------|
|-----------------------------------------|
|-----10-------9-----12-----10-----9h10---|
|-0-0------0-0---0-0----0-0----0-0--------|
|-----------------------------------------|
|-----------------------------------------|
|
| S S  H..
|-----------------------------------------|
|-----------------------------------------|
|-----------------------------------------|
|-7-7-------------------------------------|
|-5-5-------------------------------------|
|-----------------------------------------|


  S S  S   S S S S S  S S S  S S S S  S
|---------------------------------------|
|---------------------------------------|
|-----10-------9-----12-----10-----9h10-|
|-8-8------8-8---8-8----8-8----8-8------|
|---------------------------------------|
|---------------------------------------|
|
| S S  H..
|---------------------------------------|
|---------------------------------------|
|---------------------------------------|
|-3-3-----------------------------------|
|-1-1-----------------------------------|
|---------------------------------------|


  S S  S   S S S S S S  S S S  S S S  S
|-----------------------------------------|
|-----------------------------------------|
|-----10-------9-----9h10---9h10---9h10---|
|-8-8------8-8---8-8------8------8--------|
|-----------------------------------------|
|-----------------------------------------|
|
| S S  H..
|-----------------------------------------|
|-----------------------------------------|
|-----------------------------------------|
|-3-3-------------------------------------|
|-1-1-------------------------------------|
|-----------------------------------------|


       ~~~~~~~~~~~~~~~~~~~~~~~~~~~~~~~~~~
    E  Q       E    E.      E.     S  S
||--------------------------------------|
||o-------------------------------------|
||----10-------9---12------10------9S10-|
||--------------------------------------|
||o-------------------------------------|
||--------------------------------------|
|
|   E  S S S S S S  S  S S  S  S S S  S
||--------------------------------------|
||o-------------------------------------|
||--------------------------------------|
||--7------------------------------7--7-|
||o-5--5-5-5-5-5-5--5--5-5--5--5-5-5p=4-|
||--------------------------------------|


 ~~~~~~~~~~~~~~~~~~~~~~~~~~~~~~~~~~~~~~~~
   +E   Q       E    E.      E.     S  S
|----------------------------------------|
|----------------------------------------|
|-(10)-10-------9---12------10------9S10-|
|----------------------------------------|
|----------------------------------------|
|----------------------------------------|
|
|   E   S S S S S S  S  S S  S  S S E
|----------------------------------------|
|----------------------------------------|
|----------------------------------------|
|---7-------------------------------5----|
|---5---5-5-5-5-5-5--5--5-5--5--5-5-3----|
|----------------------------------------|


    ~~~~~~~~~~~~~~~~~~~~~~~~~~~~~~~~~~~~~~
   +E   Q       E    E.      E.     S  S
|----------------------------------------|
|----------------------------------------|
|-(10)-10-------9---12------10------9S10-|
|----------------------------------------|
|----------------------------------------|
|----------------------------------------|
|
|   E   S S S S S S  S  S S  S  S S S  S
|----------------------------------------|
|----------------------------------------|
|----------------------------------------|
|---3------------------------------------|
|---1---1-1-1-1-1-1--1--1-1--1--1-1-1--1-|
|----------------------------------------|


 ~~~~~~~~~~~~~~~~~~~~~~~~~~~~~~~~~~~~~~~~~
   +E   Q       E    E.      E.      S  S
|-------------------------------------------|
|-------------------13----------------------|
|-(10)-10-------9-----------12------10-12---|
|-------------------------------------------|
|-------------------------------------------|
|-------------------------------------------|
|
|   E   S S S S S S  S  S S  S  S S  S  S
|-------------------------------------------|
|-------------------------------------------|
|-------------------------------------------|
|---5---------------------------------------|
|---3---3-3-3-3-3-3--3--3-3--3--3-3--3--3---|
|-------------------------------------------|


    ~~~~~~~~~~~~~~~~~~~~~~~~~~~~~~~~~~~~~~
   +E   Q       E    E.      E.     S  S
|----------------------------------------|
|----------------------------------------|
|-(12)-10-------9---12------10------9S10-|
|----------------------------------------|
|----------------------------------------|
|----------------------------------------|
|
|   E   S S S S S S  S  S S  S  S S S  S
|----------------------------------------|
|----------------------------------------|
|----------------------------------------|
|---7-------------------------------7--7-|
|---5---5-5-5-5-5-5--5--5-5--5--5-5-5p=4-|
|----------------------------------------|


 ~~~~~~~~~~~~~~~~~~~~~~~~~~~~~~~~~~~~~~~~
   +E   Q       E    E.      E.     S  S
|-----------------------------------------|
|-----------------------------------------|
|-(10)-10-------9---12------10------9S10--|
|-----------------------------------------|
|-----------------------------------------|
|-----------------------------------------|
|
|   E   S S S S S S  S  S S  S  S S E
|-----------------------------------------|
|-----------------------------------------|
|-----------------------------------------|
|---7-------------------------------5-----|
|---5---5-5-5-5-5-5--5--5-5--5--5-5-3-----|
|-----------------------------------------|


   ~~~~~~~~~~~~~~~~~~~~~~~~~~~~~~~~~~~~~~~~~~~~~~~~~~~~~~~~~~~~
   E  Q       E    E.      E.     S  S    +E   Q       E    H
|--------------------------------------|---------------------------------------|
|--------------------------------------|---------------------------------------|
|-10-10-------9---12------10------9S10-|-(10)-10-------9---10\-----------------|
|--------------------------------------|---------------------------------------|
|--------------------------------------|---------------------------------------|
|--------------------------------------|---------------------------------------|
|
|  E  S S S S S S  S  S S  S  S S S  S     E   S S S S S S  S  S S S S S S S
|--------------------------------------|---------------------------------------|
|--------------------------------------|---------------------------------------|
|--------------------------------------|---------------------------------------|
|--3-----------------------------------|---5-----------------------------------|
|--1--1-1-1-1-1-1--1--1-1--1--1-1-1--1-|---3---3-3-3-3-3-3--3--3-3-3-3-3-3-3---|
|--------------------------------------|---------------------------------------|


  E S S S S S S S S S S S S S S   E S S S S S S S S S S S S E
|-------------------------------|-----------------------------|
|-------------------------------|-----------------------------|
|-------------------------------|-----------------------------|
|-7-------------------------7-7-|-7-------------------------5-|
|-5-5-5-5-5-5-5-5-5-5-5-5-5-5p4-|-5-5-5-5-5-5-5-5-5-5-5-5-5-3-|
|-------------------------------|-----------------------------|


  E S S S S S S S S S S S S S S   E S S S S S S S S S S S S S S
|-------------------------------|--------------------------------|
|-------------------------------|--------------------------------|
|-------------------------------|--------------------------------|
|-3-----------------------------|-5------------------------------|
|-1-1-1-1-1-1-1-1-1-1-1-1-1-1-1-|-3-3-3-3-3-3-3-3-3-3-3-3-3-3-3--|
|-------------------------------|--------------------------------|


  E S S S S S S S S S S S S S S   E S S S S S S S S S S S S E
|-------------------------------|-----------------------------|
|-------------------------------|-----------------------------|
|-------------------------------|-----------------------------|
|-7-------------------------7-7-|-7-------------------------5-|
|-5-5-5-5-5-5-5-5-5-5-5-5-5-5p4-|-5-5-5-5-5-5-5-5-5-5-5-5-5-3-|
|-------------------------------|-----------------------------|


  E S S S S S S S S S S S S S S   E S S S S S S S S S S S S S S
|-------------------------------|--------------------------------|
|-------------------------------|--------------------------------|
|-------------------------------|--------------------------------|
|-3-----------------------------|-5------------------------------|
|-1-1-1-1-1-1-1-1-1-1-1-1-1-1-1-|-3-3-3-3-3-3-3-3-3-3-3-3-3-3-3--|
|-------------------------------|--------------------------------|


  W          W
|----------|------|
|----------|------|
|----------|------|
|-3--------|-5----|
|-1--------|-3----|
|----------|------|


  S S E E S S H      S S E E S S Q E E
|------------------|--------------------|
|------------------|--------------------|
|------------------|--------------------|
|-7-7-7---7-7-7----|-7-7-7---7-7-7-7-5--|
|-5-4-5---5-4-5----|-5-4-5---5-4-5-5-3--|
|------------------|--------------------|


  W          W
|----------|------|
|----------|------|
|----------|------|
|-3--------|-5----|
|-1--------|-3----|
|----------|------|


             ~~~~~~~
  W          H    H
|----------|-----------|
|----------|-----------|
|-2--------|-----------|
|-2--------|-3----5----|
|-0--------|-1----3----|
|----------|-----------|


  H.             Q      W
|---------------------|-----------------|
|---------------------|-----------------|
|-7-------------10----|-3---------------|
|-7-------------10----|-3---------------|
|-5--------------8----|-1---------------|
|---------------------|-----------------|
|
| E  E E E E E   E  E   E E E E E E E E
|---------------------|-----------------|
|------6-----------10-|-------3-------3-|
|--------7---7s=10----|-----3---3---3---|
|----7-----7---/10----|---3-------3-----|
|-5-------------------|-1---------------|
|---------------------|-----------------|


  W                 S S E E S S H
|-----------------|------------------|
|-----------------|------------------|
|-5---------------|------------------|
|-5---------------|-7-7-7---7-7-7----|
|-3---------------|-5-4-5---5-4-5----|
|-----------------|------------------|
|
| E E E E E E E E   W
|-----------------|------------------|
|-------5-------5-|------------------|
|-----5---5---5---|------------------|
|---5-------5-----|------------------|
|-3---------------|------------------|
|-----------------|------------------|


  H.             Q      W
|---------------------|-----------------|
|---------------------|-----------------|
|-7-------------10----|-3---------------|
|-7-------------10----|-3---------------|
|-5--------------8----|-1---------------|
|---------------------|-----------------|
|
| E  E E E E E   E  E   E E E E E E E E
|---------------------|-----------------|
|------6-----------10-|-------3-------3-|
|--------7---7s=10----|-----3---3---3---|
|----7-----7---/10----|---3-------3-----|
|-5-------------------|-1---------------|
|---------------------|-----------------|


  W                 S S E E S S H      S S E E S S H
|-----------------|------------------|-------------------||
|-----------------|------------------|------------------o||
|-5---------------|------------------|-------------------||
|-5---------------|-7-7-7---7-7-7----|-7-7-7---7-7-7-----||
|-3---------------|-5-4-5---5-4-5----|-5-4-5---5-4-5----o||
|-----------------|------------------|-------------------||
|
| E E E E E E E E   W
|-----------------|------------------|-------------------||
|-------5-------5-|------------------|------------------o||
|-----5---5---5---|------------------|-------------------||
|---5-------5-----|------------------|-------------------||
|-3---------------|------------------|------------------o||
|-----------------|------------------|-------------------||


  S S E E S S H      S S E E S S Q  E E
|------------------|--------------------|
|------------------|--------------------|
|------------------|--------------------|
|-7-7-7---7-7-7----|-7-7-7---7-7-7--7-5-|
|-5-4-5---5-4-5----|-5-4-5---5-4-5--5-3-|
|------------------|--------------------|


  W          W
|----------|------|
|----------|------|
|----------|------|
|-3--------|-5----|
|-1--------|-3----|
|----------|------|


  S S E E S S H      S S E E S S Q  E E
|------------------|--------------------|
|------------------|--------------------|
|------------------|--------------------|
|-7-7-7---7-7-7----|-7-7-7---7-7-7--7-5-|
|-5-4-5---5-4-5----|-5-4-5---5-4-5--5-3-|
|------------------|--------------------|


  W          W
|----------|------|
|----------|------|
|----------|------|
|-3--------|-5----|
|-1--------|-3----|
|----------|------|


  W          H    H
|----------|-----------|
|----------|-----------|
|-2--------|-----------|
|-2--------|-3----5----|
|-0--------|-1----3----|
|----------|-----------|


  PM|         PM|           ~~       PM|         PM|         ~~~~
  S S S S S S S S S S S S S E.       S S S S S S S S S S S S E E
|----------------------------------|-------------------------------|
|----------------------------------|-------------------------------|
|----------------------------------|-------------------------------|
|----------------------------------|-------------------------------|
|-5-5-7-5-7-8-5-5-7-5-7-8-5-7------|-5-5-7-5-7-8-5-5-7-5-7-8-5-3---|
|----------------------------------|-------------------------------|
|
| E   S S S S S S S S S S S S  S S   E   S S S S S S S S S S S S E
|----------------------------------|-------------------------------|
|----------------------------------|-------------------------------|
|----------------------------------|-------------------------------|
|-7----------------------------7-7-|-7---------------------------5-|
|-5---5-5-5-5-5-5-5-5-5-5-5-5--5p4-|-5---5-5-5-5-5-5-5-5-5-5-5-5-3-|
|----------------------------------|-------------------------------|


  |-----------------------------3-----------------------------|
  S S S S S   S S S   S S S   S S S   S S S   S S S   S S S   S
|-------------------------------------------------------5-6---8-|
|-----------------------------------------------5-6---8---------|
|---------------2-3---5---------2-3---5-3-5---7-----------------|
|-------2-3---5---------2-3---5---------------------------------|
|-1-3-5---------------------------------------------------------|
|---------------------------------------------------------------|
|
| E     S   S   S   S   S   S   S   S   S   S   S   S   S   S
|---------------------------------------------------------------|
|---------------------------------------------------------------|
|---------------------------------------------------------------|
|-3-------------------------------------------------------------|
|-1-----1---1---1---1---1---1---1---1---1---1---1---1---1---1---|
|---------------------------------------------------------------|


                  ~
  S S S S S S S S Q       E   E
|-6-5-------------------------------|
|-----8-6-5-------------------------|
|-----------7-5-3-2-------3---2-----|
|-----------------------------------|
|-----------------------------------|
|-----------------------------------|
|
| E   S S S S S S S S S S S S S S
|-----------------------------------|
|-----------------------------------|
|-----------------------------------|
|-5---------------------------------|
|-3---3-3-3-3-3-3-3-3-3-3-3-3-3-3---|
|-----------------------------------|


  ~~             ~                                 ~~
  Q.         S S Q       E   E     E.   E.     E   Q.           E
|--------------------------------|--------------------------------|
|--------------------------------|--------------------------------|
|-3----------2-3-2-------2---0---|--------------------------------|
|--------------------------------|-2----3------5----------------3-|
|--------------------------------|-----------------1--------------|
|--------------------------------|--------------------------------|
|
| E  S S S S S S S S S S S S S S   E  S S  S S S S S  S S S S S E
|--------------------------------|--------------------------------|
|--------------------------------|--------------------------------|
|--------------------------------|--------------------------------|
|-7--------------------------7-7-|-7----------------------------5-|
|-5--5-5-5-5-5-5-5-5-5-5-5-5-5p4-|-5--5-5--5-5-5-5-5--5-5-5-5-5-3-|
|--------------------------------|--------------------------------|


                  ~~                 ~
  E.   E.     E   Q.           E     W
|----------------------------------|--------------------------------|
|----------------------------------|--------------------------------|
|----------------------------------|-5------------------------------|
|-2----3------5----------------3---|-5------------------------------|
|-----------------3----------------|--------------------------------|
|----------------------------------|--------------------------------|
|
| E  S S  S S S S S  S S S S S S S   E S S S S S S S S S S S S S S
|----------------------------------|--------------------------------|
|----------------------------------|--------------------------------|
|----------------------------------|--------------------------------|
|-3--------------------------------|-5------------------------------|
|-1--1-1--1-1-1-1-1--1-1-1-1-1-1-1-|-3-3-3-3-3-3-3-3-3-3-3-3-3-3-3--|
|----------------------------------|--------------------------------|


   T  T  T  T  T  T  T  T  T  T  T  T  T  T  T  T  T  T  T  T  T  T  T  T  T  T  T  T  T  T  T  T
|-------13-17-13-------------13-17-13-------------13-18-13-------------13-17-13-------------12-15-|
|----15----------15-------15----------15-------15----------15-------15----------15-------13-------|
|-14----------------14-14----------------14-14----------------14-14----------------14-12----------|
|-------------------------------------------------------------------------------------------------|
|-------------------------------------------------------------------------------------------------|
|-------------------------------------------------------------------------------------------------|
|
|  E           S     S     S     S     S     S     S     S     S     S     S     S     S     S
|-------------------------------------------------------------------------------------------------|
|-------------------------------------------------------------------------------------------------|
|-------------------------------------------------------------------------------------------------|
|--7-----------------------------------------------------------------------------------7-----7----|
|--5-----------5-----5-----5-----5-----5-----5-----5-----5-----5-----5-----5-----5-----5p====4----|
|-------------------------------------------------------------------------------------------------|


                                                       ~~~~~~~
   T  T  T  T  T  T  T  S     E      E      Q          S.   E
|-12-------------10-13-13---/13S====15S====17S========20S==22----|
|----13-------11-------------------------------------------------|
|-------12-10----------------------------------------------------|
|----------------------------------------------------------------|
|----------------------------------------------------------------|
|----------------------------------------------------------------|
|
|  E           S     S    S     S S    S S    S S S S    S  E
|----------------------------------------------------------------|
|----------------------------------------------------------------|
|----------------------------------------------------------------|
|--7--------------------------------------------------------5----|
|--5-----------5-----5----5-----5-5----5-5----5-5-5-5----5--3----|
|----------------------------------------------------------------|


   ~~~
   Q.          E    S  S  S  S  E    E
|-22----------22---20-22-18-22-17--------|
|-----------------------------------18---|
|----------------------------------------|
|----------------------------------------|
|----------------------------------------|
|----------------------------------------|
|
|  E  S S S S  S S  S  S  S  S  S S  S S
|----------------------------------------|
|----------------------------------------|
|----------------------------------------|
|--3-------------------------------------|
|--1--1-1-1-1--1-1--1--1--1--1--1-1--1-1-|
|----------------------------------------|


   E  E    E    E    E.        E.        E
|-17------17------------------22------------|
|----18--------18S==22------------------22--|
|-------------------------------------------|
|-------------------------------------------|
|-------------------------------------------|
|-------------------------------------------|
|
|  E  S S  S S  S S  S  S S S  S  S S S
|-------------------------------------------|
|-------------------------------------------|
|-------------------------------------------|
|--5----------------------------------------|
|--3--3-3--3-3--3-3--3--3-3-3--3--3-3-3-----|
|-------------------------------------------|


  Gtr IV
   ~~~
   W
|----------------------|-----------------|
|----------------------|-----------------|
|-22-------------------|-----------------|
|----------------------|-----------------|
|----------------------|-----------------|
|----------------------|-----------------|
|
| Gtr II
|  H.             Q      W
|----------------------|-----------------|
|----------------------|-----------------|
|--7-------------10----|-3---------------|
|--7-------------10----|-3---------------|
|--5--------------8----|-1---------------|
|----------------------|-----------------|
|
| Gtr III
|  E  E E E E E   E  E   E E E E E E E E
|----------------------|-----------------|
|-------6-----------10-|-------3-------3-|
|---------7---7s=10----|-----3---3---3---|
|-----7-----7---/10----|---3-------3-----|
|--5-------------------|-1---------------|
|----------------------|-----------------|


  Gtr II
  W                 S S E E S S H
|-----------------|------------------|
|-----------------|------------------|
|-5---------------|------------------|
|-5---------------|-7-7-7---7-7-7----|
|-3---------------|-5-4-5---5-4-5----|
|-----------------|------------------|
|
| Gtr III
| E E E E E E E E   W
|-----------------|------------------|
|-------5-------5-|------------------|
|-----5---5---5---|------------------|
|---5-------5-----|------------------|
|-3---------------|------------------|
|-----------------|------------------|


  H.             Q      W
|---------------------|-----------------|
|---------------------|-----------------|
|-7-------------10----|-3---------------|
|-7-------------10----|-3---------------|
|-5--------------8----|-1---------------|
|---------------------|-----------------|
|
| E  E E E E E   E  E   E E E E E E E E
|---------------------|-----------------|
|------6-----------10-|-------3-------3-|
|--------7---7s=10----|-----3---3---3---|
|----7-----7---/10----|---3-------3-----|
|-5-------------------|-1---------------|
|---------------------|-----------------|


  W                 S S E E S S H      S S E E S S H
|-----------------|------------------|------------------|
|-----------------|------------------|------------------|
|-5---------------|------------------|------------------|
|-5---------------|-7-7-7---7-7-7----|-7-7-7---7-7-7----|
|-3---------------|-5-4-5---5-4-5----|-5-4-5---5-4-5----|
|-----------------|------------------|------------------|
|
| E E E E E E E E   W
|-----------------|------------------|------------------|
|-------5-------5-|------------------|------------------|
|-----5---5---5---|------------------|------------------|
|---5-------5-----|------------------|------------------|
|-3---------------|------------------|------------------|
|-----------------|------------------|------------------|


       ~~~~~~~~~~~~~~~~~~~~~~~~~~~~~~~~~~
    E  Q       E    E.      E.     S  S
||--------------------------------------|
||o-------------------------------------|
||----10-------9---12------10------9S10-|
||--------------------------------------|
||o-------------------------------------|
||--------------------------------------|
|
|   E  S S S S S S  S  S S  S  S S S  S
||--------------------------------------|
||o-------------------------------------|
||--------------------------------------|
||--7------------------------------7--7-|
||o-5--5-5-5-5-5-5--5--5-5--5--5-5-5p=4-|
||--------------------------------------|


 ~~~~~~~~~~~~~~~~~~~~~~~~~~~~~~~~~~~~~~~~
   +E   Q       E    E.      E.     S  S
|----------------------------------------|
|----------------------------------------|
|-(10)-10-------9---12------10------9S10-|
|----------------------------------------|
|----------------------------------------|
|----------------------------------------|
|
|   E   S S S S S S  S  S S  S  S S E
|----------------------------------------|
|----------------------------------------|
|----------------------------------------|
|---7-------------------------------5----|
|---5---5-5-5-5-5-5--5--5-5--5--5-5-3----|
|----------------------------------------|


   ~~~~~~~~~~~~~~~~~~~~~~~~~~~~~~~~~~~~~
   E  Q       E    E.      E.     S  S
|--------------------------------------|
|--------------------------------------|
|-10-10-------9---12------10------9S10-|
|--------------------------------------|
|--------------------------------------|
|--------------------------------------|
|
|  E  S S S S S S  S  S S  S  S S S  S
|--------------------------------------|
|--------------------------------------|
|--------------------------------------|
|--3-----------------------------------|
|--1--1-1-1-1-1-1--1--1-1--1--1-1-1--1-|
|--------------------------------------|


 ~~~~~~~~~~~~~~~~~~~~~~~~~~~~~~~~~~~~~~~~~
   +E   Q       E    E.      E.      S  S    3x
|--------------------------------------------||
|-------------------13----------------------o||
|-(10)-10-------9-----------12------10-12----||
|--------------------------------------------||
|-------------------------------------------o||
|--------------------------------------------||
|
|   E   S S S S S S  S  S S  S  S S  S  S    3x
|--------------------------------------------||
|-------------------------------------------o||
|--------------------------------------------||
|---5----------------------------------------||
|---3---3-3-3-3-3-3--3--3-3--3--3-3--3--3---o||
|--------------------------------------------||


  W..
|--------|
|--------|
|--------|
|-7------|
|-5------|
|--------|



Duration Legend
---------------
W - whole; H - half; Q - quarter; E - 8th; S - 16th; T - 32nd; X - 64th; a - acciaccatura
+ - note tied to previous; . - note dotted; .. - note double dotted
Uncapitalized letters represent notes that are staccato (1/2 duration)
Irregular groupings are notated above the duration line
Duration letters will always appear directly above the note/fret number it represents the
duration for.  Duration letters with no fret number below them represent rests.  Multi-
bar rests are notated in the form Wxn, where n is the number of bars to rest for.  Low
melody durations appear below the staff

Tablature Legend
----------------
 h   - hammer-on
 p   - pull-off
 b   - bend
 pb  - pre-bend
 r   - bend release (if no number after the r, then release immediately)
 /\  - slide into or out of (from/to "nowhere")
 s   - legato slide
 S   - shift slide
 - natural harmonic
[n]  - artificial harmonic
n(n) - tapped harmonic
 ~   - vibrato
 tr  - trill
 T   - tap
 TP  - trem. picking
 PM  - palm muting
\n/  - tremolo bar dip; n = amount to dip
 \n  - tremolo bar down
 n/  - tremolo bar up
/n\  - tremolo bar inverted dip
 =   - hold bend; also acts as connecting device for hammers/pulls
 <> - volume swell (louder/softer)
 x   - on rhythm slash represents muted slash
 o   - on rhythm slash represents single note slash

Misc Legend
-----------
 |  - bar
||  - double bar
||o - repeat start
o|| - repeat end
*|  - double bar (ending)
 :  - bar (freetime)
 $  - Segno
 &  - Coda
Tempo markers -  = BPM(8/16=s8/s16), where s8 = swing 8ths, s16 = swing 16ths
Добавлено: 03.05.2012
Вам также может быть интересно:
Другие материалы по этой песне:
  • Аккорды и текст

Страница создана 03.05.2012
http://primanota.ru/decade/rate-of-fire-chords.htm
Привет, Гость.
Предлагаем пройти революционный курс по гитаре.
Подарок от PrimaNota.Ru, забирай!