PrimaNota.ru - самый крупный в мире бесплатный архив песенных текстов, аккордов, табулатур и нот


Deca - Breadcrumbs - таба, видео

Регистрация Запомнить меня
Войти через:  Facebook Google Twitter Vk Yandex Mail.ru

Deca - Breadcrumbs - таба, видео

Печатать
Просмотров: 101
-------------------------------------------------------------------------------
                             Breadcrumbs - Deca
-------------------------------------------------------------------------------
Tabbed by: Hantan
E-mail: Hantanthegreat

Tuning: Drop D

e|---------------------------------------------------------------------------------------------------------|
B|-------------------------10-13-13-15-10~----------10-13-13-15-10~-----8-----------8~---------------------|
G|------10-10--12~-----10h12-------------------10h12---------------------10-----10-------------------------|
D|-10h12-----12-----------------------------------------------------------12~-----12-----------------------|
A|---------------------------------------------------------------------------------------------------------|
D|--------------------------------------------------------------------------------------(0)-3h5------------|



************************************

| /   slide up
| \   slide down
| h   hammer-on
| p   pull-off
| ~   vibrato
| +   harmonic
| x   Mute note
| b   Bend
| pb  Pre-bend
| br  Bend release
| pbr Pre-bend release
| brb Bend release bend

************************************
Добавлено: 25.07.2015
Другие материалы по этой песне:
  • Аккорды и текст

Страница создана 25.07.2015
http://primanota.ru/deca/breadcrumbs-chords.htm
Привет, Гость.
Предлагаем пройти революционный курс по гитаре.
Подарок от PrimaNota.Ru, забирай!