PrimaNota.ru - самый крупный в мире бесплатный архив песенных текстов, аккордов, табулатур и нот


Debbie Davies - Picture This - таба, видео

Регистрация Запомнить меня
Войти через:  Facebook Google Twitter Vk Yandex Mail.ru

Debbie Davies - Picture This - таба, видео

Печатать
Просмотров: 116
"Picture This" from Blind Pig records in San Francsico.  (If you can't find it
in the store, I purchased it from the CD connection on the net.)  She used to
be in a blues band with John Mayall's wife and then toured with Albert Collins
for three years.  Just recently she was spotlighted on the HOUSE OF BLUES with
Dan Akroyd.  (I know I'm probably destroying the spelling of theses people's names
but I think you get the point.)

I tried to put in all the dynamics where possible but you'll need to listen to
the song to get every bend and slide just right.  It's a really fun tune, so
have a good time.

Jim Kath
jkath@aol.com or jkath@imc.com

                              Picture This
                                by Debbie Davies
                              (E major 4/4 time)

  |-3-|  |-3-|  |-3-|                          |-3-|  |-3-|  |-3-----------------|
|-----0--3-0----------|-----------------|----------0--3-0------------------------|
|-0-3--------3--0-----|-----------------|------0-3--------3--0-------------------|
|-----------------2-0-|-----------------|---2------------------2-0---------------|
|---------------------|-2-2-4-4-2-2-4-4-|-2--------------------------------------|
|---------------------|-0-0-0-0-0-0-0-0-|-0--------------------------------------|
|---------------------|-----------------|----------------------------------------|
  2      3      4       1   2   3   4     1    2      3      4

                          |-3-|  |-3-|  |-3--------------------------------------|
|------------------|-------------3-0----------|----------------------------------|
|------------------|----------0------3--0-----|----------------------------------|
|------------------|---2--0-2-------------2-0-|----------------------------------|
|------------------|--------------------------|-4-4-6-6--4-4-6-6-----------------|
|-2-2-4-4--2-2-4-4-|-2------------------------|-2-2-2-2--2-2-2-2-----------------|
|-0-0-0-0--0-0-0-0-|-0------------------------|----------------------------------|
  1   2    3   4     1    2      3      4       1   2    3   4

     |-3-|  |-3-|  |-3-----------------------------------------------------------|
|------------------------|-------------------------------------------------------|
|---s3-3-3-s3-3-3--------|-------------------------------------------------------|
|---s4-4-4-s4-4-4--3-2-0-|-------------------------------------------------------|
|-2----------------------|-2-----------------------------------------------------|
|-0----------------------|-------------------------------------------------------|
|------------------------|-------------------------------------------------------|
  1  2      3      4       1 Picture this picture this, Yeah baby picture this

|-This is lick number 1---|
  |-3-|  |-3-|  |-3-|                        |-3---------------------------------|
|-------------------------|------------------------------------------------------|
|-3-3-3--3-3-3------------|------------------------------------------------------|
|-4-4-4--4-4-4--2-0-------|------------------2-0---------------------------------|
|-------------------2--t1-|----------------------2--t1---------------------------|
|-------------------------|------------------------------------------------------|
|-------------------------|------------------------------------------------------|
                            ...eternal bliss           picture this picture this
                                      |-3-|  |-3-|  |-3--------------------------|
|--------------|-----------------------------7-6-5-------------|-----------------|
|--------------|--------------------------5---------9-8-5--sb7-|-----------------|
|-Play lick #1-|----------------------5-6----------------------|-----------------|
|--------------|-----------------------------------------------|-----------------|
|--------------|-----------------------------------------------|-----------------|
|--------------|-----------------------------------------------|-----------------|
                ...lovin' for ya baby                           ... by too long

            |-3-|               |-3-|  |-3-|  |-3--------------------------------|
|-----------------|-----------------0--3-0-----------|---------------------------|
|-----------------|-------------0-3--------3--0------|---------------------------|
|-/4-3---3--2-0---|-----------------------------2-0--|-t1------------------------|
|---------------2-|-t1-------------------------------|---------------------------|
|-----------------|----------------------------------|---------------------------|
|-----------------|----------------------------------|---------------------------|
   2   3    4         ...crazy  2      3      4        1   ...can't go on
                       |-3-|          |-3----------------------------------------|
|-------------|---------------sb6----------|-sb6---------|----sb7----------------|
|-------------|-----/6-5---5------/6--5---5|-------------|----sb8----------------|
|-------------|----------6--------------6--|-------------|----------2-0----------|
|-------------|----------------------------|-------------|--------------2--------|
|-------------|----------------------------|-------------|-----------------------|
|-------------|----------------------------|-------------|-----------------------|
 pic. this pic. this   2       3      4           ...pic. this 2 3  4
                         |-3-|
|--------------|----------------------|----------------------------------------|
|--------------|---------5---8---5----|----------------------------------------|
|-t1-----------|-----/6----6----------|---Play lick #1-------------------------|
|--------------|----------------------|----------------------------------------|
|--------------|----------------------|----------------------------------------|
|--------------|----------------------|----------------------------------------|
            ...bliss     2       3   4
                    |16trip|
|-----------------------------|------------------------------------------------|
|----------------0------------|------------------------------------------------|
|--------------------3-2-0----|------------------------------------------------|
|---------------------------2-|--------------Play lick #1----------------------|
|-----------------------------|-----------(It gets played a LOT)---------------|
|-----------------------------|------------------------------------------------|
 ... on the inside             ...love to me
                  |--3--|   |--3--|   |--3---------------------------------------|
|----------------------------------------------|---------------------------------|
|-----------------15-15-15--15-15-15--14-14-14-|-12------------------------------|
|-----------------16-16-16--16-16-16--14-14-14-|-12------------------------------|
|----------------------------------------------|---------------------------------|
|----------------------------------------------|---------------------------------|
|----------------------------------------------|---------------------------------|
 ...break the ice 2         3         4                  ...down shuffle twice
      |-3-|  |quart trip|                          |qurt trip|
|---------3--sb3-sb3-sb3---|-0------------|-----7---7---7---7------------------|
|-----0-3------------------|--------------|-----8---8---8---8------------------|
|--2-----------------------|--------------|------------------------------------|
|--------------------------|--------------|------------------------------------|
|--------------------------|--------------|------------------------------------|
|--------------------------|--------------|------------------------------------|
 1    2      3       4        ...roll the  dice 2  3    4
                                                |qurt trip|
|-7---|-------------------------------|------7---7---7---7-----|---------------|
|-8---|-------------------------------|------8---8---8---8-----|---------------|
|-----|-----Play lick #1--------------|------------------------|---------------|
|-----|--(see, I told you)------------|------------------------|---------------|
|-----|-------------------------------|------------------------|---------------|
|-----|-------------------------------|------------------------|---------------|
    ...vice 2                ...picture this 2   3     4              ...picture
                |-3-|                 |-3-|  |-3---------------------------------|
|---------------------|-------|--------------------|------------|----------------|
|---------------------|-------|---------3-3--3-3-3-|-3----------|----------------|
|------sb2------2-0---|-t2----|---------4-4--4-4-4-|-4----------|---Play---------|
|-------------------2-|-------|--------------------|------------|---Lick #1------|
|---------------------|-------|--------------------|------------|----------------|
|---------------------|-------|--------------------|------------|----------------|
 this   2   3   4             ...bliss 3     4           ...pic. this

            SOLO    |-3-|  |-3-|  |-3-|  |-3-|   |-3-|  |-3-|             |-3----|
|--3--\2--|---||-------------------------------|------------------------||----0--|
|--3--\2--|---||--.-3-3-3--3-3-3--3-3-3--3-3-3-|-3-3-3---------------.--||0-3----|
|--3--\2--|---||----4-4-4--4-4-4--4-4-4--4-4-4-|-4-4-4--2-0----t1-------||-------|
|--2--\1--|---||-------------------------------|------------2-----------||-------|
|---------|---||--.----------------------------|---------------------.--||-------|
|-C9--B9--|---||-------------------------------|------------------------||-------|
                    1      2      3      4       1      2      3

               |-3-|    |-3-|      |-3-|        |-3-|  |-3-----------------------|
|-sb3--0---------0-0------0-0--|-sb3-0----------0-------------|---0---------0----|
|--------0---sb3------sb3------|-------0---sb3----3-0---------|-----0--sb3-------|
|------------------------------|-----------------------2-0----|------------------|
|------------------------------|---------------------------2--|-t1---------------|
|------------------------------|------------------------------|------------------|
|------------------------------|------------------------------|------------------|
   1   2      3        4           1         2   3     4        1  2    3   4

   |-3-|   |-3-|   |-3-|  |-3-|      |-3-|  |-3-|  |-3-|   |-3-|  |-3------------|
|-------------------------------|------------------------|-----------------------|
|--/5-5-5--/5-5-5--3-0----------|------------------------|-----------------------|
|----------------------3--2-0---|------------------------|-----------------------|
|-----------------------------2-|------------------0-1-2-|-0------2-0----2-------|
|-------------------------------|----0-1-2--0-1-2--------|---2-0------3----------|
|-------------------------------|------------------------|-----------------0-----|
                                  1  2      3      4       1      2      3

                                         |--3--|  |--3--|   |--3--|   |--3-------|
|---------|------------------|----------|--12-12--12-12-12--12-12-12--12-12-12---|
|---------|------------------|----------|--12-12--12-12-12--12-12-12--12-12-12---|
|---------|----Play lick #1--|-C9 to B9-|----------------------------------------|
|---------|------------------|----------|----------------------------------------|
|---------|------------------|----------|----------------------------------------|
|-sb2-sb2-|-0----------------|----------|----------------------------------------|
  4                                             1        2         3

  |--3--|                          |--3--|   |--3--|   |--3--|    |--3-----------|
|-12-12-12--12-12--12-12-----|--------12-12--12-12-12-----12-12-|-12-12-12-------|
|-12-12-12--12-12--12-12-----|---------------12-12-12-----12-12-|-12-12-12-------|
|-------------------------14-|----------------------------------|----------------|
|----------------------------|----------------------------------|----------------|
|----------------------------|----------------------------------|----------------|
|----------------------------|----------------------------------|----------------|
   1         2      3     4    1   2         3         4

 |qrt trps|     |--3--|   |qrt trps| |qrt trps|                         |--3-----|
|-15-15-15--15-----------|----------------------|--------------------------------|
|-15-15-15--15-----------|----------------------|----------------------------14--|
|------------------12-14-|-14-14-14--14-14-14---|-14-14--12------------------14--|
|---------------14-------|----------------------|-----------14---12-14----12-14--|
|------------------------|----------------------|-----------------------14-------|
|------------------------|----------------------|--------------------------------|
  1     2    3  4          1    2    3    4       1     2        3      4

      |--3--|   |--3--|   |--3--|                  |--3--|   |--3----------------|
|-----------12--15-12-----15-12----|-------12------------------------------------|
|-12--12-15-----------12--------12-|--b15----------------------------------------|
|-12-------------------------------|----------b14--14-12--------12-14------------|
|-12-------------------------------|---------------------14--14------------------|
|----------------------------------|---------------------------------------------|
|----------------------------------|---------------------------------------------|
  1    2         3        4           1    2       3         4
  |--3--|   |--3--|   |--3--|   |--3--|    |--3--|   |--3--|  |--3--|   |--3-----|
|-12-12-12--12-12-12--12-12-12-----------|----12-12--12-12-12-12-12-12-----------|
|-12-12-12--12-12-12--12-12-12-----------|----12-12--12-12-12-12-12-12-----------|
|-------------------------------14-12----|------------------------------14-12----|
|-------------------------------------14-|-----------------------------------14--|
|----------------------------------------|---------------------------------------|
|----------------------------------------|---------------------------------------|
   1         2         3        4          1         2        3         4
       |--3--|                  end of solo                          |-3---------|
|------------------------------|---------------|---------------------------------|
|------------------------------|---------------|------------------0--------------|
|--b12----12-14--14-14--12-----|-12---C9 to b9-|---------------------2-0---------|
|------14-------------------14-|---------------|-------------------------2-------|
|------------------------------|---------------|---------------------------------|
|------------------------------|---------------|---------------------------------|
   1   2         3     4                         ...man who's able   4

                                           |--3--|   |--3--|   |--3--------------|
|--------------------------|---------------15-15-15--15-15-15--14-14-14--12------|
|--------------------------|---------------16-16-16--16-16-16--14-14-14--12------|
|-------------Play lick #1 |-----------------------------------------------------|
|--------------------------|-----------------------------------------------------|
|--------------------------|-----------------------------------------------------|
|--------------------------|-----------------------------------------------------|
 ...love to me              ...picture this

                                      |-3-|                     |-3--------------|
|------------------------------------------------|-------------------------------|
|------------------------------------------------|-------------------------------|
|----------------sb4-sb4-sb4-sb4--b3--2-0--------|---------sb4--2-0----0t1-------|
|-----------------------------------------2--0t2-|------------------2------------|
|------------------------------------------------|-------------------------------|
|------------------------------------------------|-------------------------------|
 ...picture this                                  ...bliss

|----------------------------|---------------7--7-7--7-------------------------|
|----------------------------|---------------8--8-8--8-------------------------|
|---------------Play lick #1-|-------------------------------------------------|
|----------------------------|-------------------------------------------------|
|----------------------------|-------------------------------------------------|
|----------------------------|-------------------------------------------------|
 ...picture this               ...picture this              ...picture this

    |-3-| |-3-|  |-3-|                       |-3---------------------------------|
|----------------------------|--------------------------|------------------------|
|-----3---3---3--------------|--------------------------|------------------------|
|--s4--4----4----2-0-----0t1-|----------0-2--2-2-0--sb2-|------------------------|
|--------------------2-------|--------2-----------------|------------------------|
|----------------------------|--------------------------|------------------------|
|----------------------------|--------------------------|------------------------|
                              ...bliss                       ...picture this

|----------------|-----------------||
|----------------|-----------------||
|---Play lick #1 |--C9 down to B9--||
|----------------|-----------------||
|----------------|-----------------||
|----------------|-----------------||
Добавлено: 23.06.2012
Другие материалы по этой песне:
  • Аккорды и текст

Страница создана 23.06.2012
http://primanota.ru/debbie-davies/picture-this-chords.htm
Привет, Гость.
Предлагаем пройти революционный курс по гитаре.
Подарок от PrimaNota.Ru, забирай!