PrimaNota.ru - самый крупный в мире бесплатный архив песенных текстов, аккордов, табулатур и нот


Debarge - I Like It - таба, видео

Регистрация Запомнить меня
Войти через:  Facebook Google Twitter Vk Yandex Mail.ru

Debarge - I Like It - таба, видео

Печатать
Просмотров: 95
Авторы: Randy DeBarge, El DeBarge, Etterlene Jordan

As recorded by El Debarge

Transcribed by Theodore Diaz Jr

         Amaj7                 G#7                C#9sus4              E9sus4
      5 x 6 6 5 x          4 6 4 5 4 4          x 4 4 4 4 x          x 7 7 7 7 x

      G#7(type 2)             E9/Bb               E7sus4                E7/Bb
      4 6 4 5 7 x          6 7 6 7 7 x         x 7 9 7 10 7          6 7 9 7 9 x

        C#7sus4              C7sus4                 Bm7                  E7
      x 4 6 4 7 x          x 3 5 3 6 x          7 x 7 7 7 7          x 7 6 7 5 x

          B7                  Emaj7                F#m7                 C#m7
      7 9 7 8 7 7          x 7 9 8 9 7          2 x 2 2 2 2          9 x 9 9 9 9

          Cm7
      8 x 8 8 8 8

Gtr I (E A D G B E) - 'Untitled'

   Pre-Verse
    Q=85
    Amaj7      G#7       C#9sus4        E9sus4    Amaj7
   4/4
    Gtr I
    E  S  S Q  S S E +E  S S   E S S Q  S S E +E  S S
||---------------------------|---------------------------|
||o----5----5--4---4-(4)-4---|---4---4--7---7-(7)-5------|
||-----6----6--5---5-(5)-4---|---4---4--7---7-(7)-6------|
||-----6----6--4---4-(4)-4---|---4---4--7---7-(7)-6------|
||o------------6---6-(6)-4---|---4---4--7---7-(7)--------|
||--5-(5)------4---4-(4)-----|--------------------5------|


  Amaj7       G#7       C#9sus4        E9sus4     Amaj7
  E  S  S E E S S E  E  S S   E S S Q   E  S S  E S S
|---------------------------|-----------------------------||
|----5----5---4---4-(4)-4---|---4---4------7------5------o||
|----6----6---5---5-(5)-4---|---4---4--/7------/7-6-------||
|----6----6---4---4-(4)-4---|---4---4--/7------/7-6-------||
|-------------6---6-(6)-4---|---4---4--/7------/7--------o||
|-5-(5)-----5--------4------|---------------------5-------||


   Verse
    Q=85
    Amaj7      G#7       C#9sus4        E9sus4    Amaj7
   4/4
    Gtr I
    E  S  S Q  S S E +E  S S   E S S Q  S S E +E  S S
||---------------------------|---------------------------|
||o----5----5--4---4-(4)-4---|---4---4--7---7-(7)-5------|
||-----6----6--5---5-(5)-4---|---4---4--7---7-(7)-6------|
||-----6----6--4---4-(4)-4---|---4---4--7---7-(7)-6------|
||o------------6---6-(6)-4---|---4---4--7---7-(7)--------|
||--5-(5)------4---4-(4)-----|--------------------5------|


                             1.                          2.
  Amaj7       G#7       C#9sus4        E9sus4    Amaj7            E9suE7
  E  S  S E E S S E  E  S S   E S S Q   E S S  E S S     E S S Q  Q   Q
|---------------------------|-------------------------||-------------------|
|----5----5---4---4-(4)-4---|---4---4-----7------5---o||---4---4--7---9----|
|----6----6---5---5-(5)-4---|---4---4--/7-----/7-6----||---4---4--7---7----|
|----6----6---4---4-(4)-4---|---4---4--/7-----/7-6----||---4---4--7---9----|
|-------------6---6-(6)-4---|---4---4--/7-----/7-----o||---4---4--7---7----|
|-5-(5)-----5--------4------|--------------------5----||-------------------|


 Chorus
  Amaj7G#7   C#9sus4    E9sE9/Bb Amaj7G#7(typeC#9sus4  E7susBb7+11+5
  Q.   E +Q.   E   +H     Q  Q    Q.   E +Q.   E   +H    Q   Q
|----------------|--------------|----------------|----------------|
|-5----7-(7)---4-|-(4)----7--7--|-5----7-(7)---4-|-(4)--10---9----|
|-6----5-(5)---4-|-(4)----7--7--|-6----5-(5)---4-|-(4)---7---7----|
|-6----4-(4)---4-|-(4)----7--6--|-6----4-(4)---4-|-(4)---9---8----|
|------6-(6)---4-|-(4)----7--7--|------6-(6)---4-|-(4)---7---7----|
|-5----4-(4)-----|-----------6--|-5----4-(4)-----|-----------6----|


  Amaj7G#7(typeC#9sus4    E9sE9/BbAmaj7G#7(typeC#7sus4  C7sBm7E7
  Q.   E +Q.   E   +H     Q  Q    Q.   E +Q.   E   +Q   Q  Q  Q
|----------------|--------------|----------------|----------------|
|-5----7-(7)---4-|-(4)----7--7--|-5----7-(7)---7-|-(7)--6--7--5---|
|-6----5-(5)---4-|-(4)----7--7--|-6----5-(5)---4-|-(4)--3--7--7---|
|-6----4-(4)---4-|-(4)----7--6--|-6----4-(4)---6-|-(6)--5--7--6---|
|------6-(6)---4-|-(4)----7--7--|------6-(6)---4-|-(4)--3-----7---|
|-5----4-(4)-----|-----------6--|-5----4-(4)-----|---------7------|


   Bridge
            Amaj7             B7                    Emaj7      Bm7     E7
    S S  E   S  S S  S S S E   S   S E      S  S E   E   S  S  S S  E  S S E
||-----------------------------7----------|----------7-----------------------|
||o----------5-----------------7----------|----------9---------7----7--5---5-|
||-----------6-----------------8----------|----------8---------7----7--7---7-|
||-----------6-----------------7----------|----------9---------7----7--6---6-|
||o----------------------------9----------|-7----7--(7)----------------7---7-|
||--5----5--(5)---5--6-7---7--(7)----7----|--------------5--6--7----7--------|


        F#m7            G#7       C#mCm7Bm7E7
  S S E  S  S S S S S E  E   E    Q  Q  Q  Q
|------------------------4--(4)-|-------------||----|
|--------2---------------4--(4)-|-9--8--7--5-o||----|
|--------2---------------5--(5)-|-9--8--7--7--||----|
|--------2---------------4--(4)-|-9--8--7--6--||----|
|------------------------6--(6)-|----------7-o||----|
|-2---2-(2)---2-3-4---4-(4)--4--|-9--8--7-----||----|


Duration Legend
---------------
W - whole; H - half; Q - quarter; E - 8th; S - 16th; T - 32nd; X - 64th; a - acciaccatura
+ - note tied to previous; . - note dotted; .. - note double dotted
Uncapitalized letters represent notes that are staccato (1/2 duration)
Irregular groupings are notated above the duration line
Duration letters will always appear directly above the note/fret number it represents the
duration for.  Duration letters with no fret number below them represent rests.  Multi-
bar rests are notated in the form Wxn, where n is the number of bars to rest for.  Low
melody durations appear below the staff

Tablature Legend
----------------
 h   - hammer-on
 p   - pull-off
 b   - bend
 pb  - pre-bend
 r   - bend release (if no number after the r, then release immediately)
 /\  - slide into or out of (from/to "nowhere")
 s   - legato slide
 S   - shift slide
  - natural harmonic
[n]  - artificial harmonic
n(n) - tapped harmonic
 ~   - vibrato
 tr  - trill
 T   - tap
 TP  - trem. picking
 PM  - palm muting
\n/  - tremolo bar dip; n = amount to dip
 \n  - tremolo bar down
 n/  - tremolo bar up
/n\  - tremolo bar inverted dip
 =   - hold bend; also acts as connecting device for hammers/pulls
 <>  - volume swell (louder/softer)
 x   - on rhythm slash represents muted slash
 o   - on rhythm slash represents single note slash

Misc Legend
-----------
 |  - bar
||  - double bar
||o - repeat start
o|| - repeat end
*|  - double bar (ending)
 :  - bar (freetime)
 $  - Segno
 &  - Coda
Tempo markers -  = BPM(8/16=s8/s16), where s8 = swing 8ths, s16 = swing 16ths


Добавлено: 14.04.2012
Другие материалы по этой песне:

Страница создана 14.04.2012
http://primanota.ru/debarge/i-like-it-chords.htm
Привет, Гость.
Предлагаем пройти революционный курс по гитаре.
Подарок от PrimaNota.Ru, забирай!