PrimaNota.ru - самый крупный в мире бесплатный архив песенных текстов, аккордов, табулатур и нот


Deathstars - Tounges - таба, видео

Регистрация Запомнить меня
Войти через:  Facebook Google Twitter Vk Yandex Mail.ru

Deathstars - Tounges - таба, видео

Печатать
Просмотров: 101
Уроки эстрадного вокала в Санкт-Петербурге
-------------------------------------------------------------------------------
			     Tongues - Deathstars
-------------------------------------------------------------------------------
Tabbed by: Haydn Rivers
Email: cubehead1@hotmail.com

Tuning: Drop C (CGCFAD)

Hello. If you find anything wrong in this tab, feel free to send me an email and i\'ll 
it out. This is my very first tab. :) Wish me luck.
(Sorry I spelt the name wrong... ^_^\')

Intro:
Synth Only (0:00 - 0:07)

(Riff 1)
(0:07 - 0:17)                                         x2
D|------------------------------------------------------|
A|------------------------------------------------------|
F|-o--------------------------------------------------o-|
c|-o--------------------------------------------------o-|
G|--2--2-2--2--2--2-2------2--2-2--2--2--2-2------------|
C|--2--2-2--2--2--2-2--2~--2--2-2--2--2--2-2--2~--------|
PM  -  - -  -  -  - -      -  - -  -  -  - -

(Riff 2)
(0:17 - 0:27)
D|----------------------------------------------------------|
A|----------------------------------------------------------|
F|----------------------------------------------------------|
c|----------------------------------------------------------|
G|--2--2-2--2--0--0-0--0--0-0--5--5-5--5--3--3-3--3--3-3----|
C|--2--2-2--2--0--0-0--0--0-0--5--5-5--5--3--3-3--3--3-3----|
PM  -  - -  -  -  - -  -  - -  -  - -  -  -  - -  -  - -
D|----------------------------------------------------------|
A|----------------------------------------------------------|
F|----------------------------------------------------------|
c|----------------------------------------------------------|
G|--2--2-2--2--0--0-0--0--0-0--5--5-5--5--7--7-7--7--7-7----|
C|--2--2-2--2--0--0-0--0--0-0--5--5-5--5--7--7-7--7--7-7----|
PM  -  - -  -  -  - -  -  - -  -  - -  -  -  - -  -  - -
Verse:
Synth Only (0:27 - 0:37)
\"No prayers can reach me here
No light can touch\"

(Riff 3)
(0:37 - 0:47)                              x2
D|-------------------------------------------|
A|-------------------------------------------|
F|-o---------------------------------------o-|
c|-o---------------------------------------o-|
G|--2--2-2--2--2-------------2--2-2--2--2----|
C|--2--2-2--2--2-------------2--2-2--2--2----|
PM  -  - -  -  -             -  - -  -  -
\"Among reduced Bibles, cigarettes and drugs
I carve your name in my flesh\"

Bridge 1:
(Riff 4)
(0:47 - 0:57)
D|---------------------------------------------------------------------------|
A|---------------------------------------------------------------------------|
F|---------------------------------------------------------------------------|
c|---------------------------------------------------------------------------|
G|--2--2-2--2--0------5--5-5--5--7------2--2-2--2--0-----7----9----10----9---|
C|--2--2-2--2--0------5--5-5--5--7------2--2-2--2--0-----7----9----10----9---|
PM  -  - -  -  -      -  - -  -  -      -  - -  -  -
\"Listen... Listen...
Then come and take my hand!\"

Chorus:
(Riff 5)
(0:57 - 1:17)
D|----------------------------------------------------------|
A|----------------------------------------------------------|
F|----------------------------------------------------------|
c|----------------------------------------------------------|
G|--2--2-2--2--0--0-0--0--0-0--5--5-5--5--3--3-3--3--3-3----|
C|--2--2-2--2--0--0-0--0--0-0--5--5-5--5--3--3-3--3--3-3----|\\
PM  -  - -  -  -  - -  -  - -  -  - -  -  -  - -  -  - -      x2
D|----------------------------------------------------------|/
A|----------------------------------------------------------|
F|----------------------------------------------------------|
c|----------------------------------------------------------|
G|--2--2-2--2--0--0-0--0--0-0--5--5-5--5--7--7-7--7--7-7----|
C|--2--2-2--2--0--0-0--0--0-0--5--5-5--5--7--7-7--7--7-7----|
PM  -  - -  -  -  - -  -  - -  -  - -  -  -  - -  -  - -
\"Tongues, Tongues
Speak a little God\'s name
Tongues, Tongues
Shame, shame!\"

Bridge 2:
(Riff 1)                     _________________
(1:17 - 1:27)             x3                2.|
D|--------------------------|-----------------|
A|--------------------------|-----------------|
F|-o----------------------o-|-----------------|
c|-o----------------------o-|-----------------|
G|--2--2-2--2--2--2-2-------|--2--2-2--2--2---|
C|--2--2-2--2--2--2-2--2~---|--2--2-2--2--2---|
PM  -  - -  -  -  - -          -  - -

Verse 2:
Synth Only (1:27 - 1:37)
\"Innocence will never kiss me again
Never lick my stiched scars\"

(Riff 3) (1:37 - 1:47)
\"Your lipstick's between the legs of hell
Mixed with speed and blood\"

(Riff 4) (1:47 - 1:57)
\"Listen, Listen...
Then come and take my hand\"

Chorus:
(Riff 5) (1:57 - 2:17)
\"Tongues, Tongues
Speak a little God\'s name
Tongues, Tongues
Shame, shame\"

Middle 8:
(2:17 - 2:26)
D|-----------------------------------------------------------|
A|-----------------------------------------------------------|
F|-----------------------------------------------------------|
c|-----------------------------------------------------------|
G|--3--3---0--0---2--2---0--0-0-0---3--3---0--0---2--2--2-2--|
C|--3--3---0--0---2--2---0--0-0-0---3--3---0--0---2--2--2-2--|
PM                            -

Verse 3:
Synth Only (2:26 - 2:47)
\"The eggs grow in her open wrists
It has started now...
Her taste is on my lips and tongue
The taste of white medicines\"

Bridge 1:
Synth Only (2:47 - 2:56)
\"Listen, Listen...\"
(2:56 - 2:58)
D|---------------------------|
A|---------------------------|
F|---------------------------|
c|---------------------------|
G|--7-----9-----10-----9-----|
C|--7-----9-----10-----9-----|
\"I\'ll come and take your hand\"

Chorus:
(Riff 5) (2:56 - 3:18)
Tongues, Tongues
Speak a little God\'s name
Tongues, Tongues
Shame, shame

Interlude:
(2:18 - 3:28)    2x
D|-----------------|
A|-----------------|
F|-o-------------o-|
c|-o-------------o-|
G|--2--2---0--0----|
C|--2--2---0--0----|
\"Na na na na... Speak a little god\'s name
Na na na na.... Shame, shame\"

(3:28 - 3:48)
D|----------------------------------------------------------|
A|----------------------------------------------------------|
F|----------------------------------------------------------|
c|----------------------------------------------------------|
G|--2--2-2--2--0--0-0--0--0-0--5--5-5--5--3--3-3--3--3-3----|
C|--2--2-2--2--0--0-0--0--0-0--5--5-5--5--3--3-3--3--3-3----|
PM  -  - -  -  -  - -  -  - -  -  - -  -  -  - -  -  - -
D|------------------------------------------------------------|
A|------------------------------------------------------------|
F|------------------------------------------------------------|
c|------------------------------------------------------------|
G|--2--2-2--2--0--0-0--0--0-0--5--5-5--5--7--7-7--7--7-7--0-0-|
C|--2--2-2--2--0--0-0--0--0-0--5--5-5--5--7--7-7--7--7-7--0-0-|
PM  -  - -  -  -  - -  -  - -  -  - -  -  -  - -  -  - -
\"Tongues, Tonges
Speak a little God\'s name
Tongues, Tongues
Shame, shame, shame!\"
Добавлено: 25.09.2013
Другие материалы по этой песне:
  • Аккорды и текст

Страница создана 25.09.2013
http://primanota.ru/deathstars/tounges-chords.htm
Привет, Гость.
Предлагаем пройти революционный курс по гитаре.
Подарок от PrimaNota.Ru, забирай!