PrimaNota.ru - самый крупный в мире бесплатный архив песенных текстов, аккордов, табулатур и нот


Deathstars - The Revolution Exodus - текст песни, таба, видео

Регистрация Запомнить меня
Войти через:  Facebook Google Twitter Vk Yandex Mail.ru

Deathstars - The Revolution Exodus - текст песни, таба, видео

Печатать
Просмотров: 128
===========================================================


                       The Revolution Exodus
===========================================================


By:  Deathstars

Album: Synthetic Generation


Tabbed by: John Moores
mooresjw@email.uc.edu

Drop C Tuning (CGCFAD)


* = Palm Mute
@ = Pinched harmonic
x = muted

Intro/Main Riff

0:16

|--------------------------------------------------|
|--------------------------------------------------|
|--------------------------------------------------|
|--------------------------------------------------|
|--------------------------------------------------|
|--00000--00000--000--------00000--00000--000------|
   *****  *****  ***        *****  *****  ***

|--------------------------------------------------|
|--------------------------------------------------|
|--------------------------------------------------|
|--------------------------------------------------|
|--------------------------------------------------|
|--99999-99999-999--88888-88888-888----------------|
   ***** ***** ***  ***** ***** ***

|--------------------------------------------------|
|--------------------------------------------------|
|--------------------------------------------------|
|------0------0----0------------0------0----0------|
|------0------0----0------------0------0----0------|
|--00000--00000--000--------00000--00000--000------|
   ****   ****   **         ****   ****   **

|--------------------------------------------------|
|--------------------------------------------------|
|--------------------------------------------------|
|------9-----9---9----------8-----8---8------------|
|------9-----9---9----------8-----8---8------------|
|--99999-99999-999------88888-88888-888------------|
   ****  ****  **       ****  ****  ** 



Chorus Riff
0:29

|-------------------------------------------|
|-------------------------------------------|
|-------------------------------------------|
|---0-------7---6----1----1-3-1-------------|
|---0-------7---6----1----1-3-1-------------|
|---0-------7---6----1----1-3-1-------------|
                          * * 
                                              x2
|-------------------------------------------|
|-------------------------------------------|
|-------------------------------------------|
|---0-------7---10---6---6-7-6--------------|
|---0-------7---10---6---6-7-6--------------|
|---0-------7---10---6---6-7-6--------------|
                         * *

Verse 1
0:43

|-------------------------------------------|
|-------------------------------------------|
|-------------------------------------------|
|-------------------------------------------|
|---0-0-0--7-7-7--6-6-6--1-1-1--1-3-1-------|
|---0-0-0--7-7-7--6-6-6--1-1-1--1-3-1-------|
    * * *  * * *  * * *  * * *  * * *
                                               x2
|-------------------------------------------|
|-------------------------------------------|
|-------------------------------------------|
|-------------------------------------------|
|---0-0-0--7-7-7--10-10-10--6-6-6--6-7-6----|
|---0-0-0--7-7-7--10-10-10--6-6-6--6-7-6----|
    * * *  * * *  *  *  *   * * *  * * *

0:56
|-------------------------------------------|
|-------------------------------------------|
|-------------------------------------------|
|-------------------------------------------|
|---0-0-0--7-7-7--6-6-6--1-1-1--1-3-1-------|
|---0-0-0--7-7-7--6-6-6--1-1-1--1-3-1-------|
      * *    * *    * *    * *
                                               x2          
|-------------------------------------------|
|-------------------------------------------|
|-------------------------------------------|
|-------------------------------------------|
|---0-0-0--7-7-7--10-10-10--6-6-6--6-7-6----|
|---0-0-0--7-7-7--10-10-10--6-6-6--6-7-6----|
      * *    * *     *  *     * * 

Chorus Riff
1:15

|-------------------------------------------|
|-------------------------------------------|
|-------------------------------------------|
|---0-------7---6----1----1-3-1-------------|
|---0-------7---6----1----1-3-1-------------|
|---0-------7---6----1----1-3-1-------------|
                          * * 
                                              x2
|-------------------------------------------|
|-------------------------------------------|
|-------------------------------------------|
|---0-------7---10---6---6-7-6--------------|
|---0-------7---10---6---6-7-6--------------|
|---0-------7---10---6---6-7-6--------------|
                         * *

Verse 2
1:29

|-------------------------------------------|
|-------------------------------------------|
|-------------------------------------------|
|-------------------------------------------|
|---0-0-0--7-7-7--6-6-6--1-1-1--1-3-1-------|
|---0-0-0--7-7-7--6-6-6--1-1-1--1-3-1-------|
    * * *  * * *  * * *  * * *  * * *
                                              x2
|-------------------------------------------|
|-------------------------------------------|
|-------------------------------------------|
|-------------------------------------------|
|---0-0-0--7-7-7--10-10-10--6-6-6--6-7-6----|
|---0-0-0--7-7-7--10-10-10--6-6-6--6-7-6----|
    * * *  * * *  *  *  *   * * *  * * *

0:56
|-------------------------------------------|
|-------------------------------------------|
|-------------------------------------------|
|-------------------------------------------|
|---0-0-0--7-7-7--6-6-6--1-1-1--1-3-1-------|
|---0-0-0--7-7-7--6-6-6--1-1-1--1-3-1-------|
      * *    * *    * *    * *
                                               x2          
|-------------------------------------------|
|-------------------------------------------|
|-------------------------------------------|
|-------------------------------------------|
|---0-0-0--7-7-7--10-10-10--6-6-6--6-7-6----|
|---0-0-0--7-7-7--10-10-10--6-6-6--6-7-6----|
      * *    * *     *  *     * * 


Chorus Riff  (preceded by a pick scratch)
2:02

|-------------------------------------------|
|-------------------------------------------|
|-------------------------------------------|
|---0-------7---6----1----1-3-1-------------|
|---0-------7---6----1----1-3-1-------------|
|---0-------7---6----1----1-3-1-------------|
                          * * 
                                              x2
|-------------------------------------------|
|-------------------------------------------|
|-------------------------------------------|
|---0-------7---10---6---6-7-6--------------|
|---0-------7---10---6---6-7-6--------------|
|---0-------7---10---6---6-7-6--------------|
                         * *


Bridge
2:15

|-------------------------------------------|
|-------------------------------------------|
|-------------------------------------------|
|-------------------------------------------| x8
|--0-0--0--0-2-0-2/3--3--0-2/3--------------|
|--0-0--0--0-2-0-2/3--3--0-2/3--------------|


2:42
|-------------------------------------------|
|-------------------------------------------|
|-------------------------------------------|
|--8-8--8--8-8-8--8-8--8--8-8-8-------------|
|--8-8--8--8-8-8--8-8--8--8-8-8-------------|
|--8-8--8--8-8-8--8-8--8--8-8-8-------------|
           * * *          * * *

|-------------------------------------------|
|-------------------------------------------|
|-------------------------------------------|
|--0-0--0--0-2-0--2/3--0--2/3---------------|
|--0-0--0--0-2-0--2/3--0--2/3---------------|
|--0-0--0--0-2-0--2/3--0--2/3---------------|
           * * *   

|-------------------------------------------|
|-------------------------------------------|
|-------------------------------------------|
|--5-5--5--5-5-5--5-5--5--7-----------------|
|--5-5--5--5-5-5--5-5--5--7-----------------|
|--5-5--5--5-5-5--5-5--5--7-----------------|
           * * *          

3:06

|-----------------------|
|-----------------------|
|-----------------------|
|----0///\\//\\\--------|
|----0///\\//\\\--------|
|----0///\\//\\\--------|


Chorus Riff
3:08

|-------------------------------------------|
|-------------------------------------------|
|-------------------------------------------|
|---0-------7---6----1----1-3-1-------------|
|---0-------7---6----1----1-3-1-------------|
|---0-------7---6----1----1-3-1-------------|
                          * * 
                                              x4
|-------------------------------------------|
|-------------------------------------------|
|-------------------------------------------|
|---0-------7---10---6---6-7-6--------------|
|---0-------7---10---6---6-7-6--------------|
|---0-------7---10---6---6-7-6--------------|
                         * *


Lead over Chorus after first 2 repetitions, 
repeat with chorus till the end

|-----------------------|
|-----------------------|
|-----7b~~~---7@~~------|
|-----------------------|
|-----------------------|
|-----------------------|


3:35

|----------------------------------------------|
|----------------------------------------------|
|--7----8~---7-----5----7----8~---7------------|
|-----7----------7----------7--------7--5--7---|
|----------------------------------------------|
|----------------------------------------------|



Добавлено: 01.07.2013
Другие материалы по этой песне:
  • Аккорды и текст

Страница создана 05.06.2012
http://primanota.ru/deathstars/the-revolution-exodus-chords.htm
Привет, Гость.
Предлагаем пройти революционный курс по гитаре.
Подарок от PrimaNota.Ru, забирай!