PrimaNota.ru - самый крупный в мире бесплатный архив песенных текстов, аккордов, табулатур и нот


Deathstars - Chertograd - текст песни, таба, бас-таба, видео

Регистрация Запомнить меня
Войти через:  Facebook Google Twitter Vk Yandex Mail.ru

Deathstars - Chertograd - текст песни, таба, бас-таба, видео

Печатать
Просмотров: 200
===========================================================

                       Chertograd

===========================================================

By:  Deathstars
Album: Night Electric Night

Tabbed by: John Moores
mooresjw@email.uc.edu



Drop C Tuning (CGCFAD)

* = Palm Mute
@ = Pinched harmonic
x = muted

Intro/Main Riff
0:23

|---------------------------------------------------------|
|---------------------------------------------------------|
|---------------------------------------------------3-----|
|-2-0-2---2-0-2---0-2--2-3--0--2-0-2---2-0-2---0-2--3-2-0-|  x2
|-2-0-2---2-0-2---0-2--2-3--0--2-0-2---2-0-2---0-2--1-2-0-|
|-2-0-2---2-0-2---0-2--2-3--0--2-0-2---2-0-2---0-2----2-0-|


0:34
|-------------------------------------------------------|
|-------------------------------------------------------|
|-------------------------------------------------------|
|-2-0-2---2-0-2--0-2--0-2---9-7-9---9-7-9--7-9--7-9-----|
|-2-0-2---2-0-2--0-2--0-2---9-7-9---9-7-9--7-9--7-9-----|
|-2-0-2---2-0-2--0-2--0-2---9-7-9---9-7-9--7-9--7-9-----|
  * * *   * * *  * *  * *   * * *   * * *  * *  * *
            
|-------------------------------------------------------|
|-------------------------------------------------------|
|-------------------------------------------------------|
|-5-7-7---7-5-7--5-7--5-7-----4-2-4---4-2--22--2-22-2---|
|-5-7-7---7-5-7--5-7--5-7-----4-2-4---4-2--22--2-22-2---|
|-5-7-7---7-5-7--5-7--5-7-----4-2-4---4-2--22--2-22-2---|
  * * *   * * *  * *  * *     * * *   * *  **    **

|-------------------------------------------------------|
|-------------------------------------------------------|
|-------------------------------------------------------|
|-2-0-2---2-0-2--0-2--0-2---9-7-9---9-7-9--7-9--7-9-----|
|-2-0-2---2-0-2--0-2--0-2---9-7-9---9-7-9--7-9--7-9-----|
|-2-0-2---2-0-2--0-2--0-2---9-7-9---9-7-9--7-9--7-9-----|
  * * *   * * *  * *  * *   * * *   * * *  * *  * *

|-------------------------------------------------------|
|-------------------------------------------------------|
|-------------------------------------------------------|
|-5-7-7---7-5-7--5-7--5-7-----9-7-9---9-12--14--14--14--|
|-5-7-7---7-5-7--5-7--5-7-----9-7-9---9-12--14--14--14--|
|-5-7-7---7-5-7--5-7--5-7-----9-7-9---9-12--14--14--14--|
  * * *   * * *  * *  * *     * * *   * *       *

Verse
1:00

1:05
|---------------------------------------------------------|
|---------------------------------------------------------|
|---------------------------------------------------3-----|
|-2-0-2---2-0-2---0-2--2-3--0--2-0-2---2-0-2---0-2--3-2-0-|
|-2-0-2---2-0-2---0-2--2-3--0--2-0-2---2-0-2---0-2--1-2-0-|
|-2-0-2---2-0-2---0-2--2-3--0--2-0-2---2-0-2---0-2----2-0-|


1:17
|---------------------------------------------------------|
|---------------------------------------------------------|
|---------------------------------------------------3-----|
|-2-0-2---2-0-2---0-2--2-3--0--2-0-2---2-0-2---0-2--3-2-0-|
|-2-0-2---2-0-2---0-2--2-3--0--2-0-2---2-0-2---0-2--1-2-0-|
|-2-0-2---2-0-2---0-2--2-3--0--2-0-2---2-0-2---0-2----2-0-|


Pre-chorus
1:22

|--------------------------------------------------|
|--------------------------------------------------|
|--5~-------------5~-----4~------------------------|
|--5~-----2~------5~-----4~------------------------|
|--3~-----2~------3~-----2~------------------------|
|---------2~---------------------------------------|


Chorus
1:33

|-------------------------------------------------------|
|-------------------------------------------------------|
|-------------------------------------------------------|
|-2-0-2---2-0-2--0-2--0-2---9-7-9---9-7-9--7-9--7-9-----|
|-2-0-2---2-0-2--0-2--0-2---9-7-9---9-7-9--7-9--7-9-----|
|-2-0-2---2-0-2--0-2--0-2---9-7-9---9-7-9--7-9--7-9-----|
  * * *   * * *  * *  * *   * * *   * * *  * *  * *
            
|-------------------------------------------------------|
|-------------------------------------------------------|
|-------------------------------------------------------|
|-5-7-7---7-5-7--5-7--5-7-----4-2-4---4-2--22--2-22-2---|
|-5-7-7---7-5-7--5-7--5-7-----4-2-4---4-2--22--2-22-2---|
|-5-7-7---7-5-7--5-7--5-7-----4-2-4---4-2--22--2-22-2---|
  * * *   * * *  * *  * *     * * *   * *  **    **

|-------------------------------------------------------|
|-------------------------------------------------------|
|-------------------------------------------------------|
|-2-0-2---2-0-2--0-2--0-2---9-7-9---9-7-9--7-9--7-9-----|
|-2-0-2---2-0-2--0-2--0-2---9-7-9---9-7-9--7-9--7-9-----|
|-2-0-2---2-0-2--0-2--0-2---9-7-9---9-7-9--7-9--7-9-----|
  * * *   * * *  * *  * *   * * *   * * *  * *  * *

|-------------------------------------------------------|
|-------------------------------------------------------|
|-------------------------------------------------------|
|-5-7-7---7-5-7--5-7--5-7-----9-7-9---9-12--14--14--14--|
|-5-7-7---7-5-7--5-7--5-7-----9-7-9---9-12--14--14--14--|
|-5-7-7---7-5-7--5-7--5-7-----9-7-9---9-12--14--14--14--|
  * * *   * * *  * *  * *     * * *   * *       *


Intro Riff
1:56

|---------------------------------------------------------|
|---------------------------------------------------------|
|---------------------------------------------------3-----|
|-2-0-2---2-0-2---0-2--2-3--0--2-0-2---2-0-2---0-2--3-2-0-|
|-2-0-2---2-0-2---0-2--2-3--0--2-0-2---2-0-2---0-2--1-2-0-|
|-2-0-2---2-0-2---0-2--2-3--0--2-0-2---2-0-2---0-2----2-0-|


Verse 2
2:02


2:07
|---------------------------------------------------------|
|---------------------------------------------------------|
|---------------------------------------------------3-----|
|-2-0-2---2-0-2---0-2--2-3--0--2-0-2---2-0-2---0-2--3-2-0-|
|-2-0-2---2-0-2---0-2--2-3--0--2-0-2---2-0-2---0-2--1-2-0-|
|-2-0-2---2-0-2---0-2--2-3--0--2-0-2---2-0-2---0-2----2-0-|

2:18
|---------------------------------------------------------|
|---------------------------------------------------------|
|---------------------------------------------------------|
|-2-0-2---2-0-2---0-2--2-3--0--2-0-2---2-0---2~---0~------|
|-2-0-2---2-0-2---0-2--2-3--0--2-0-2---2-0---2~---0~------|
|-2-0-2---2-0-2---0-2--2-3--0--2-0-2---2-0---2~---0~------|


Pre-chorus
2:24

|--------------------------------------------------|
|--------------------------------------------------|
|--5~-------------5~-----4~------------------------|
|--5~-----2~------5~-----4~------------------------|
|--3~-----2~------3~-----2~------------------------|
|---------2~---------------------------------------|


Chorus
2:35

|-------------------------------------------------------|
|-------------------------------------------------------|
|-------------------------------------------------------|
|-2-0-2---2-0-2--0-2--0-2---9-7-9---9-7-9--7-9--7-9-----|
|-2-0-2---2-0-2--0-2--0-2---9-7-9---9-7-9--7-9--7-9-----|
|-2-0-2---2-0-2--0-2--0-2---9-7-9---9-7-9--7-9--7-9-----|
  * * *   * * *  * *  * *   * * *   * * *  * *  * *
            
|-------------------------------------------------------|
|-------------------------------------------------------|
|-------------------------------------------------------|
|-5-7-7---7-5-7--5-7--5-7-----4-2-4---4-2--22--2-22-2---|
|-5-7-7---7-5-7--5-7--5-7-----4-2-4---4-2--22--2-22-2---|
|-5-7-7---7-5-7--5-7--5-7-----4-2-4---4-2--22--2-22-2---|
  * * *   * * *  * *  * *     * * *   * *  **    **

|-------------------------------------------------------|
|-------------------------------------------------------|
|-------------------------------------------------------|
|-2-0-2---2-0-2--0-2--0-2---9-7-9---9-7-9--7-9--7-9-----|
|-2-0-2---2-0-2--0-2--0-2---9-7-9---9-7-9--7-9--7-9-----|
|-2-0-2---2-0-2--0-2--0-2---9-7-9---9-7-9--7-9--7-9-----|
  * * *   * * *  * *  * *   * * *   * * *  * *  * *

|-------------------------------------------------------|
|-------------------------------------------------------|
|-------------------------------------------------------|
|-5-7-7---7-5-7--5-7--5-7-----9-7-9---9-12--14--14--14--|
|-5-7-7---7-5-7--5-7--5-7-----9-7-9---9-12--14--14--14--|
|-5-7-7---7-5-7--5-7--5-7-----9-7-9---9-12--14--14--14--|
  * * *   * * *  * *  * *     * * *   * *       *

Bridge
2:58

Keys only

3:02
Pick scratch followed by
3:04
|--------------------------------------------------|
|--------------------------------------------------|
|--9---------7--------5-------4~-------------------|
|--9--11-12--7--9-11--5--7-9--4~-------------------|
|--7--9--10--5--7-9---3--5-7--2~-------------------|
|--------------------------------------------------|
      *  *      * *      * *

|--------------------------------------------------|
|--------------------------------------------------|
|--9----------------5------4~----------------------|
|--9--11-12--0--4---5--2---4~----------------------|
|--7--9--10--0--2---3--0---2~----------------------|
|------------0-------------------------------------|
      *  *


Pre-chorus
3:32

Keys only




Chorus
3:43

|-------------------------------------------------------|
|-------------------------------------------------------|
|-------------------------------------------------------|
|-2-0-2---2-0-2--0-2--0-2---9-7-9---9-7-9--7-9--7-9-----|
|-2-0-2---2-0-2--0-2--0-2---9-7-9---9-7-9--7-9--7-9-----|
|-2-0-2---2-0-2--0-2--0-2---9-7-9---9-7-9--7-9--7-9-----|
  * * *   * * *  * *  * *   * * *   * * *  * *  * *
            
|-------------------------------------------------------|
|-------------------------------------------------------|
|-------------------------------------------------------|
|-5-7-7---7-5-7--5-7--5-7-----4-2-4---4-2--22--2-22-2---|
|-5-7-7---7-5-7--5-7--5-7-----4-2-4---4-2--22--2-22-2---|
|-5-7-7---7-5-7--5-7--5-7-----4-2-4---4-2--22--2-22-2---|
  * * *   * * *  * *  * *     * * *   * *  **    **

|-------------------------------------------------------|
|-------------------------------------------------------|
|-------------------------------------------------------|
|-2-0-2---2-0-2--0-2--0-2---9-7-9---9-7-9--7-9--7-9-----|
|-2-0-2---2-0-2--0-2--0-2---9-7-9---9-7-9--7-9--7-9-----|
|-2-0-2---2-0-2--0-2--0-2---9-7-9---9-7-9--7-9--7-9-----|
  * * *   * * *  * *  * *   * * *   * * *  * *  * *

|-------------------------------------------------------|
|-------------------------------------------------------|
|-------------------------------------------------------|
|-5-7-7---7-5-7--5-7--5-7-----9-7-9---9-12--14--14--14--|
|-5-7-7---7-5-7--5-7--5-7-----9-7-9---9-12--14--14--14--|
|-5-7-7---7-5-7--5-7--5-7-----9-7-9---9-12--14--14--14--|
  * * *   * * *  * *  * *     * * *   * *       *

Repeat Chorus 2 more times



Intro Riff
4:29

|---------------------------------------------------------|
|---------------------------------------------------------|
|---------------------------------------------------3-----|
|-2-0-2---2-0-2---0-2--2-3--0--2-0-2---2-0-2---0-2--3-2-0-|  x2
|-2-0-2---2-0-2---0-2--2-3--0--2-0-2---2-0-2---0-2--1-2-0-|
|-2-0-2---2-0-2---0-2--2-3--0--2-0-2---2-0-2---0-2----2-0-|



It also sounds like there might be an octave of this played over
the normal riff.  It would look like this:

|---------------------------------------------------------|
|--------------------------------------------------11-----|
|-9-7-9---9-7-9---7-9--9-10--7--9-7-9---9-7-9--7-9-10-9-7-|
|-9-7-9---9-7-9---7-9--9-10--7--9-7-9---9-7-9--7-9----9-7-|  x2
|---------------------------------------------------------|
|---------------------------------------------------------|


Comments and ratings welcomed!  If it needs improvement, be sure to
say where!
Добавлено: 24.06.2013
Другие материалы по этой песне:
  • Аккорды и текст

Страница создана 24.06.2013
http://primanota.ru/deathstars/chertograd-chords.htm
Привет, Гость.
Предлагаем пройти революционный курс по гитаре.
Подарок от PrimaNota.Ru, забирай!