PrimaNota.ru - самый крупный в мире бесплатный архив песенных текстов, аккордов, табулатур и нот


Deathspell Omega - Carnal Malefactor - таба, видео

Регистрация Запомнить меня
Войти через:  Facebook Google Twitter Vk Yandex Mail.ru

Deathspell Omega - Carnal Malefactor - таба, видео

Печатать
Просмотров: 231
Deathspell Omega - Carnal Malefactor by Laexis
I'll make a GP version sooner or later..


1st
----------------------------------------------------------------------|
----------------------------------------------------------------------|
----------------------------------------------------------------------|
4-5-5-5-5-5-5-5 4-5-5-5-5-5-5-5 10-10-10-10-10-10-9-7 4-4-4-4-4-4-4-4-|
2-2-2-2-2-2-2-2 2-2-2-2-2-2-2-2  7- 7- 7- 7- 7- 7-7-7 2-2-2-2-2-2-2-2-|
----------------------------------------------------------------------|

----------------------------------------------------------------|
----------------------------------------------------------------|
----------------------------------------------------------------|
5-5-5-5-5-5-5-5 7-7-7-7-7-7-7-7 5-5-5-5-5-5-5-5 2-2-2-2-2-2-2-2-|
5-5-5-5-5-5-5-5 5-5-5-5-5-5-5-5 3-3-3-3-3-3-3-3 2-2-2-2-2-2-2-2-|
----------------------------------------------------------------|


2nd
--------------------------------------------------------|
--------------------------------------------------------|
--------------------------------------------------------|
7-------10-------12-------9--10--9--7-------------------|
---------------------------------------7-------3--------|
--------------------------------------------------------|


3rd
-----------------------------------------------------------------|
-----------------------------------------------------------------|
---------------------------5---4---2--------2--------------------|
------7---7-5-------------------------2-----------------5--------|
5-7-8---------8-7---8-7-8-7---------------3-------3-2-----2------|
-----------------------------------------------------------------|

...
Добавлено: 20.03.2012
Другие материалы по этой песне:

Страница создана 20.03.2012
http://primanota.ru/deathspell-omega/carnal-malefactor-chords.htm
Привет, Гость.
Предлагаем пройти революционный курс по гитаре.
Подарок от PrimaNota.Ru, забирай!