PrimaNota.ru - самый крупный в мире бесплатный архив песенных текстов, аккордов, табулатур и нот


Deathrow - The Thing Within - таба, видео

Регистрация Запомнить меня
Войти через:  Facebook Google Twitter Vk Yandex Mail.ru

Deathrow - The Thing Within - таба, видео

Печатать
Просмотров: 22
-------------------------------------------------------------------------------

DEATHROW-THE THING WITHIN-from RAGING STEEL 1987 Noise Int.
-------------------------------------------------------------------------------
Tabbed by:NihilView
E-mail:

Tuning:E standard eBGDAE


                                                                        2X
e|-----------------------------------------------------------------------0----------------| ACOUSTIC INTRO
B|-------------------------------------------------------------------6-------6------------|
G|----------------0--------------------------0-------------------5--------------5---------|
D|------------4-------4------------------4-------4-----------3----------------------------|
A|--------2---------------2----------2--------------2-------------------------------------|
E|----0---------------------------0-------------------------------------------------------|


e|---------------------------------------------------------------------------|
B|---------------------------------------------------------------------------| PART 1
G|---------------------------------------------------------------------------|
D|---------------------------------------------------------------------------|
A|--2---------------2--------------2-----------------------------------------|
E|--0-0000--0-0-0---0-0000--0-0-0--0-0000-0-0-0------------------------------|
   P.M.----------------------------------------


e|-----------------------------------------------------------------------------|
B|-----------------------------------------------------------------------------| PART 2
G|----------------------------------------------------------------4------------|
D|-----12----------8-----------7----------------------------------4----5---4---|
A|-sl--10----------9-----------8-------------2------5-3-2---------2--- 5---4---|
E|--------000-000----000-000-----000-000--------3----------2-----------3---2---|
          P.M---     P.M.---    P.M-----


                                                                                  PART 3
e|------------------------------------------------------------------------------------------------------|
B|------------------------------------------------------------------------------------------------------|
G|--4------3--------------4-----3vv-3-4--6--------------------------------------------------------------|
D|--4--4---3-----------------4------------------9--------------9----7----10----9------------------------|
A|--2--4---1---1-2--4---------------------------7--------------7----5----8-----7------8-7-8h10-8-7----7-|
E|-----2-------------------------------------------000-000-000---00---00---00----00----------------10---|



e|----------------------------------------------------------------------------|
B|----------------------------------------------------------------------------| PART 4
G|--------------------------------------------------------------------9-------|
D|--------------------------------------------------------------------9-------|
A|-----7----------6-------5-------7---6--2----------------------------7-------|
E|--8-----8----7----7---6---6-----5---4--0---00-0-00--0--00-0-00-0----0-------|


e|---------------------------------------------------------------------------|
B|---------------------------------------------------------------------------| PART 5
G|---------------------------------------------------------------------------|
D|-----------------------------------------------10------9----8--------------|
A|----------3---2----1----------------------7777-----77----77---7-78-108-7-8-|
E|---00-0-0---0---0----0---0-1-3-1-0-1---------------------------------------|
    P.M----


e|---------------------------------------------------------------------------|
B|---------------------------------------------------------------------------| PART 6-VERSE
G|----------5----4-------------------------------5---------------------------|
D|---4------5----4----5-----11------9---12-------5-------5-------------------|
A|---4------3----2-22-5-----9-999---7---10-------3-3333--5--4----------------|
E|---2-22-------------3----------------------------------3--2-2222-----------|


                                                                               PART 7
e|------------------------------------------------------------------------------------------|
B|------------------------------------------------------------------------------------------|
G|-------------------------------------------------------------------5------3---------------| CHORUS
D|--8--9---------------------------------------repeat PART 6-----2---5--4---3-----3--4------|
A|--8--9-----------3---2---1-------------------------------------2---3--4---1-----1--2--2-2-|
E|--6--7---00--0-0---0---0---0--0-1-3-1-0-1----------------------0------2---------------0-0-|



!-----------------------------------------------------------------! BRIDGE BEFORE SOLO!
!-----------------------------------------------------------------!
!-----------------------------------------------------------------!
!------------------------------------------------10--9------------!
!-2-2-------8p7---7p5---10p8---------8p7--7p5----8---7------------!
!-0-0--0-0----------------------0-0-------------------------------!


SOLO 1:   3:32-3:51


  HARMONIC INTERLUDE AFTER SOLO!
!-------------------------------------------------------------------------------------------------------!
!-------------------------------------------------------------------------------------------------------!
!-------------------------------------------------------------------------------------------------------!
!-------4h5-------4h5-------3h4-------3h4---------------4h5------4h5---9h10p9--7h9p7--5h7p5---4h5p4-----!
!---7----------7---------6--------6--------------7------------7-----------------------------------------!
!-------------------------------------------------------------------------------------------------------!


!-----------------------------------------------------------------------------------------------------!
!-----------------------------------------------------------------------------------------------------!
!-----------------------------------------------------------------------------------------------------!
!-----2h3-------2h3--------1h2-------1h2-------2h3------2h3-----7h8p7----5h7p5--3h5p3-2h3p3-----------!
!--5---------5----------4--------4---------5---------5------------------------------------------------!
!-----------------------------------------------------------------------------------------------------!




  SOLO 2: im figured just only part
!----------------------------------------------------------------------------------------!
!----------------------------------------------------------------------------------------!
!----------------------------------------------------------------------------------------!
!---14v--16h17p16--14v-------161616-17-16--19-16-17-16---1717-19-17-21-17-19--17--?????--!
!----------------------------------------------------------------------------------------!
!----------------------------------------------------------------------------------------!



                    BREAK!
!----------------------------------------------------------------------------------------! SLOWER TEMPO!
!----------------------------------------------------------------------------------------!
!----------------------------------------------------------------------------------------!
!--3-4--3------------------------1-1--1-------7-----6----5--------5-----4-----3----------!
!--1-2--1-----3----------3-------3-3--2-----8---88----7----6---6----66----5-----4--------!
!---------00--1-0000000--1--0-0----------------------------------------------------------!
              P.M.------



!----------------------------------------------------------------------------------------!
!----------------------------------------------------------------------------------------! FASTER
!----------------------------------------------------------------------------------------!
!--------3p2---5p2---7p3--------3p2---5p3-----7------9-----9--7-9-10---9---9-7-9---------!
!---------------------------------------------5------7-77777--5-7-8----77777-5-7--8--5---!
!--0-0--------------------0--0-------------0--------------------------------------6--3---!

P.M.--                  P.M.--

!----------------------------------------------------------------------------!
!----------------------------------------------------------------------------! END OF SONG
!----------------------------------------------------------------------------!
!----------------------------------------------------------------------------!
!--------------------------------------2---22-22-----------------------------!
!--0000---7tr8---1111--1---7-5--7-8----0---00-00-----------------------------!
  P.M.-         P.M.----






************************************
P.M. palm muting
| /   slide up
| \   slide down
| h   hammer-on
| p   pull-off
| ~   vibrato
| tr  trill
| b   Bend
| pb  Pre-bend
| br  Bend release
| pbr Pre-bend release
| brb Bend release bend

************************************
Добавлено: 19.10.2015
Другие материалы по этой песне:
  • Аккорды и текст

Страница создана 19.10.2015
http://primanota.ru/deathrow/thing-within-chords.htm
Привет, Гость.
Предлагаем пройти революционный курс по гитаре.
Подарок от PrimaNota.Ru, забирай!