PrimaNota.ru - самый крупный в мире бесплатный архив песенных текстов, аккордов, табулатур и нот


Death - Scavenger Of Human Sorrow - текст песни, таба, бас-таба, видео

Регистрация Запомнить меня
Войти через:  Facebook Google Twitter Vk Yandex Mail.ru

Death - Scavenger Of Human Sorrow - текст песни, таба, бас-таба, видео

Печатать
Просмотров: 263
DEATH - SCAVENGER OF HUMAN SORROW (SOLO)
FROM THE ABLUM "THE SOUND OF PERSEVERANCE"
COPYRIGHT 1998 NUCLEAR BLAST

NOTES:

Tuning: Tune down one whole step (1:D, 2:A, 3:F, 4:C, 5:G, 6:D)

Timing: Timing of notes is somewhat indicative of relative lengths.

Notation:
h= hammer on
p= pull off
b= bend 1 full step
rb= release bend
/= slide up
\= slide down
~= vibrato
,=staccato
a.h.=artificial harmonic
-----------------------------------------------------------------------------
side note: when tremolo picking not every note is shown
-----------------------------------------------------------------------------

SOLO
(3:27 - 4:11)


D|------22b~--17-19-17-15-15b--17-20-17h19p17h19p17----17-19-20--22b---------------|
A|--------------------------------------------------20-----------------------------|
F|---------------------------------------------------------------------------------|
C|---------------------------------------------------------------------------------|
G|---------------------------------------------------------------------------------|
D|------------__________________Tremolo_Picking________________--------------------|


D|-----20-19-17h19p17--------------------------------------------------------------|
A|--------------------20-19-17-16h17p16--------------------------------------------|
F|--------------------------------------19-17----16~~------------------------------|
C|--------------------------------------------19-----------------------------------|
G|---------------------------------------------------------------------------------|
D|-----_______________Tremolo_Picking___________-----------------------------------|


D|---------------------------------------------------------------------------------|
A|-----121212-12-12121212121212/13131313-13-13131313131313/15-15-15-15-16-16-16----|
F|---------------------------------------------------------------------------------|
C|-----9-9-9--9--9-9-9-9-9-9-9-/10101010-10-10101010101010/12-12-12-12/13-13-13----|
G|---------------------------------------------------------------------------------|
D|---------------------------------------------------------------------------------|

       ,, ,, ,, ,,
D|----------------------------------------------------------------------------------|
A|-----16-18-19-18-16~~-------------------------------------------------------------|
F|-------------------------------------12(a.h.)~~-----------------------------------|
C|-----13-15-16-15-13~~------14~-14-16------------16-17-17~~-17/19 19---------------|
19/21-21~~--------------------------------------------------------------------------|
G|----------------------------------------------------------------------------------|
D|----------------------------------------------------------------------------------|


D|---------------------------------------------------------------------------------|
A|---------------------------------------------------------------------------------|
F|---------------------------------------------------------------------------------|
C|-----14-16-17-14-17-16-14h16p14----------14-16-17-14-17-16-14-16~~---------------|
G|--------------------------------17-16-14-----------------------------------------|
D|-----_____________________Tremolo_picking____________________--------------------|


D|---------------------------------------------------------------------------------|
A|-----17-16-17-19b-19-17----------------------------------------------------------|
F|------------------------17-16~~------16~~~-14-16-16b-16b-16rb-17-19-18b~~~-------|
C|---------------------------------------------------------------------------------|
G|---------------------------------------------------------------------------------|
D|---------------------------------------------------------------------------------|


D|---------------------------------------------------------------------------------|
A|---------------------------------------------------------------------------------|
F|----16~~~-14-16-16b-16rb-14-12-14-16-14-12-11-12(a.h.)~~-------------------------|
C|---------------------------------------------------------------------------------|
G|---------------------------------------------------------------------------------|
D|---------------------------------------------------------------------------------|


D|----19~~~-17-19b-19b-19rb-20-22-21b~~~----/24b-----------------------------------|
A|---------------------------------------------------------------------------------|
F|---------------------------------------------------------------------------------|
C|---------------------------------------------------------------------------------|
G|---------------------------------------------------------------------------------|
D|---------------------------------------------------------------------------------|


D|----20-22-20-19-19h20p19---------------------------------------------------------|
A|-------------------------22-20-19-19h20p19-20-22-20-19h20p19---------------------|
F|---------------------------------------------------------------------------------|
C|---------------------------------------------------------------------------------|
G|---------------------------------------------------------------------------------|
D|----_________________________Tremolo_picking________________---------------------|


D|---------------------------------------------------------------------------------|
A|---------------------------------------------------------------------------------|
F|----21-19-17-16-19-17-16---------------------------------------------------------|
C|-------------------------19-17-16-14(a.h)~~~-------------------------------------|
G|---------------------------------------------------------------------------------|
D|----______Tremolo_picking________------------------------------------------------|
Добавлено: 29.04.2012
Другие материалы по этой песне:

Страница создана 31.03.2012
http://primanota.ru/death/scavenger-of-human-sorrow-chords.htm
Привет, Гость.
Предлагаем пройти революционный курс по гитаре.
Подарок от PrimaNota.Ru, забирай!