PrimaNota.ru - самый крупный в мире бесплатный архив песенных текстов, аккордов, табулатур и нот


Death - Painkiller - текст песни, таба, бас-таба, видео

Регистрация Запомнить меня
Войти через:  Facebook Google Twitter Vk Yandex Mail.ru

Death - Painkiller - текст песни, таба, бас-таба, видео

Печатать
Просмотров: 277
Авторы: Glenn Tipton, Rob Halford, Kenneth Downing

As recorded by Death
(From the 1998 Album THE SOUND OF PERSEVERANCE)

Transcribed by livingzombie
        

Words and Music by Halford, Tipton & Downing

Gtr I (Eb Ab Db Gb Bb Eb) - 'Chuck Schuldiner'
Gtr II (Eb Ab Db Gb Bb Eb) - 'Shannon Hamm'
Gtr III (Eb Ab Db Gb Bb Eb) - 'Pick Slide I'
Gtr IV (Eb Ab Db Gb Bb Eb) - 'Pick Slide II'
Gtr V (Eb Ab Db Gb Bb Eb) - 'Solo Fills'

 Intro
  Q=128      Q=104
  N.C.
 4/4
  Gtrs III, IV
  Wx4          Wx3
|------------|------------|
|------------|------------|
|------------|------------|
|------------|------------|
|------------|------------|
|------------|------------|


     TPTPTPTPTPTPTPTPTPTPTPTPTPTPTPTPTPTPTPTPTPTPTPTP
  Q  T T T T T T T T T T T T T T T T T T T T T T T T
|------------------------------------------------------|
|------------------------------------------------------|
|------------------------------------------------------|
|------------------------------------------------------|
|------------------------------------------------------|
|----xsxsxsxsxsxsxsxsxsxsxsxsxsxsxsxsxsxsxsxsxsxsxsx---|


    N.C.                                                      Bb5
    Gtrs I, II
      PM|   PM|   PM|   PM|   PM        PM|   PM|   PM|   PM|
    S S S S S S S S S S S S S S S S   S S S S S S S S S S S S E E
||----------------------------------|------------------------------||
||o---------------------------------|-----------------------------o||
||----------------------------------|------------------------------||
||----------------------------------|------------------------------||
||o-7-----5-----7-----8-----7-------|-7-----5-----7-----8-----8-8-o||
||----0-0---0-0---0-0---0-0---0-3p0-|---0-0---0-0---0-0---0-0-6-6--||


   Verse
    Double time feel Q=208
    $
    $$
    N.C.                                                          Bb5
      PM|   PM|   PM--|   PM|   PM        PM|   PM|   PM--|   PM|
    E E E E E E E E   E E E E E E E E   E E E E E E E E   E E E E Q  Q    4x
||------------------|-----------------|-----------------|-----------------||
||o-----------------|-----------------|-----------------|----------------o||
||------------------|-----------------|-----------------|-----------------||
||------------------|-----------------|-----------------|-----------------||
||o-7-----5-----7---|---8-----7-------|-7-----5-----7---|---8-----8--8---o||
||----0-0---0-0---0-|-0---0-0---0-3p0-|---0-0---0-0---0-|-0---0-0-6--6----||


 Chorus
  Half time feel Q=104
  N.C.                                              A5 D5 C5 B5
  PM--------------------------------------------|
  |----6----| |----6----| |----6----| |----6----|
  S S S S S S S S S S S S S S S S S S S S S S S S   Q  Q  Q  Q
|-------------------------------------------------|-------------|
|-------------------------------------------------|-------------|
|-------------------------------------------------|-------------|
|-------------------------------------------------|-2--7--5--4--|
|-0-0-0-0-0-0-0-0-0-0-0-0-0-0-0-0-0-0-0-0-0-0-0-0-|-0--5--3--2--|
|-------------------------------------------------|-------------|


                                         To Coda D.
                                                 D.
  N.C.
  PM--------------------------------------------|
  |----6----| |----6----| |----6----| |----6----|
  S S S S S S S S S S S S S S S S S S S S S S S S
|-------------------------------------------------|
|-------------------------------------------------|
|-------------------------------------------------|
|-------------------------------------------------|
|-0-0-0-0-0-0-0-0-0-0-0-0-0-0-0-0-0-0-0-0-0-0-0-0-|
|-------------------------------------------------|


 S. al Coda   &
 S. al Coda
  A5 B5 C5 D5    A5 B5 C5 N.C.
                           ~~~
  Q  Q  Q  Q     Q  Q  Q   Q
|-------------||-----------------||
|-------------||-----------------||
|-------------||----------[7]----||
|-2--4--5--7--||-2--4--5---------||
|-0--2--3--5--||-0--2--3---------||
|-------------||-----------------||


 Interlude
  Gtr I
    PM|   PM|   PM|   PM|   PM        PM|   PM|   PM|   PM|   PM
  S S S S S S S S S S S S S S S S   S S S S S S S S S S S S S S E
|---------------------------------|--------------------------------|
|---------------------------------|--------------------------------|
|-------------------5-----4-------|-------------------5-----4------|
|-4-----5-----4---------------4h5-|-4-----5-----4---------------5--|
|---2-2---2-2---2-2---2-2---2-----|---2-2---2-2---3-3---3-3---3----|
|---------------------------------|--------------------------------|


  Gtr I
    PM|   PM|   PM|   PM|   PM        PM|   PM|   PM|   PM|   PM
  S S S S S S S S S S S S S S S S   S S S S S S S S S S S S S S E
|---------------------------------|--------------------------------|
|---------------------------------|--------------------------------|
|-------------------5-----4-------|-------------------5-----4------|
|-4-----5-----4---------------4h5-|-4-----5-----4---------------5--|
|---2-2---2-2---2-2---2-2---2-----|---2-2---2-2---3-3---3-3---3----|
|---------------------------------|--------------------------------|
|
| Gtr II
|   PM|   PM|   PM|   PM|   PM        PM|   PM|   PM|   PM|   PM
| S S S S S S S S S S S S S S S S   S S S S S S S S S S S S S S E
|---------------------------------|--------------------------------|
|-------------------6-----5-------|-------------------6-----5------|
|-4-----5-----4---------------4h5-|-4-----5-----4---------------5--|
|---------------------------------|--------------------------------|
|---2-2---2-2---2-2---2-2---2-----|---2-2---2-2---3-3---3-3---3----|
|---------------------------------|--------------------------------|


    Q=208
      PM|   PM|   PM--|   PM|   PM        PM|   PM|   PM--|   PM|   PM  PM
    E E E E E E E E   E E E E E E E E   E E E E E E E E   E E E E E E E E
||------------------|-----------------|-----------------|-------------------||
||o-----------------|-----------------|-----------------|------------------o||
||------------------|---5-----4-------|-----------------|---5-----4---------||
||--4-----5-----4---|-------------4h5-|-4-----5-----4---|-------------5-----||
||o---2-2---2-2---2-|-2---2-2---2-----|---2-2---2-2---3-|-3---3-3---3---3--o||
||------------------|-----------------|-----------------|-------------------||
|
|     PM|   PM|   PM--|   PM|   PM        PM|   PM|   PM--|   PM|   PM  PM
|   E E E E E E E E   E E E E E E E E   E E E E E E E E   E E E E E E E E
||------------------|-----------------|-----------------|-------------------||
||o-----------------|---6-----5-------|-----------------|---6-----5--------o||
||--4-----5-----4---|-------------4h5-|-4-----5-----4---|-------------5-----||
||------------------|-----------------|-----------------|-------------------||
||o---2-2---2-2---2-|-2---2-2---2-----|---2-2---2-2---3-|-3---3-3---3---3--o||
||------------------|-----------------|-----------------|-------------------||


   Bridge
    Q=104
                                    G5
    Gtrs I, II
    PM----------------------------|
    |----6----| |----6----| |-3-|
    S S S S S S S S S S S S S S S S S +S  E.
||-------------------------------------------|
||o------------------------------------------|
||-------------------------------------------|
||-------------------------------------------|
||o---------------------------------5-(5)-5--|
||--2-2-2-2-2-2-2-2-2-2-2-2-2-2-2-2-3-(3)-3--|


  N.C.                            G5    A5
  PM----------------------------|
  |----6----| |----6----| |-3-|
  S S S S S S S S S S S S S S S S S +S  E.
|--------------------------------------------||
|-------------------------------------------o||
|--------------------------------------------||
|--------------------------------------------||
|---------------------------------5-(5)-7---o||
|-2-2-2-2-2-2-2-2-2-2-2-2-2-2-2-2-3-(3)-5----||


    N.C.                            Bb5
    PM----------------------------|
    |----6----| |----6----| |-3-|
    S S S S S S S S S S S S S S S S S +S  E.
||-------------------------------------------|
||o------------------------------------------|
||-------------------------------------------|
||-------------------------------------------|
||o---------------------------------8-(8)-8--|
||--5-5-5-5-5-5-5-5-5-5-5-5-5-5-5-5-6-(6)-6--|


  N.C.                            Bb5   C5
  PM----------------------------|
  |----6----| |----6----| |-3-|
  S S S S S S S S S S S S S S S S S +S   E.
|---------------------------------------------||
|--------------------------------------------o||
|---------------------------------------------||
|---------------------------------------------||
|---------------------------------8-(8)-10---o||
|-5-5-5-5-5-5-5-5-5-5-5-5-5-5-5-5-6-(6)--8----||


  N.C.
  Gtr I
  PM--------------------------------------------------------
  |----6----| |-----6------|  |-----6-----| |-----6------|
  S S S S S S S S S  S  S  S  S  S  S S S S S S S  S  S  S
|----------------------------------------------------------|
|----------------------------------------------------------|
|----------------------------------------------------------|
|----------------------------------------------------------|
|----------------------------------------------------------|
|-5-5-5-5-5-5-6-6-6--8--8--8--8--8--8-5-5-5-6-6-6--8--8--8-|
|
| Gtr II
| PM--------------------------------------------------------
| |----6----| |-----6------|  |-----6-----| |-----6------|
| S S S S S S S S S  S  S  S  S  S  S S S S S S S  S  S  S
|----------------------------------------------------------|
|----------------------------------------------------------|
|----------------------------------------------------------|
|----------------------------------------------------------|
|-7-7-7-7-7-7-8-8-8-10-10-10-10-10-10-7-7-7-8-8-8-10-10-10-|
|----------------------------------------------------------|


 -------------------------------------------------------|
  |----6----| |-----6------|  |-----6-----| |-----6------|
  S S S S S S S S S  S  S  S  S  S  S S S S S S S  S  S  S
|-----------------------------------------------------------|
|-----------------------------------------------------------|
|-----------------------------------------------------------|
|-----------------------------------------------------------|
|-----------------------------------------------------------|
|-5-5-5-5-5-5-6-6-6--8--8--8--8--8--8-5-5-5-6-6-6--8--8--8--|
|
|-------------------------------------------------------|
| |----6----| |-----6------|  |-----6-----| |-----6------|
| S S S S S S S S S  S  S  S  S  S  S S S S S S S  S  S  S
|-----------------------------------------------------------|
|-----------------------------------------------------------|
|-----------------------------------------------------------|
|-----------------------------------------------------------|
|-7-7-7-7-7-7-8-8-8-10-10-10-10-10-10-7-7-7-8-8-8-10-10-10--|
|-----------------------------------------------------------|


  PM-------------------------------------------------------
  |-----6-----| |-----6-----| |-----6-----| |-----6-----|
  S S S S  S  S S S S S  S  S S S S S  S  S S S S S  S  S
|---------------------------------------------------------|
|---------------------------------------------------------|
|---------------------------------------------------------|
|---------------------------------------------------------|
|---------------------------------------------------------|
|-5-5-6-6--8--8-5-5-6-6--8--8-5-5-6-6--8--8-5-5-6-6--8--8-|
|
| PM-------------------------------------------------------
| |-----6-----| |-----6-----| |-----6-----| |-----6-----|
| S S S S  S  S S S S S  S  S S S S S  S  S S S S S  S  S
|---------------------------------------------------------|
|---------------------------------------------------------|
|---------------------------------------------------------|
|---------------------------------------------------------|
|-7-7-8-8-10-10-7-7-8-8-10-10-7-7-8-8-10-10-7-7-8-8-10-10-|
|---------------------------------------------------------|


 ------------------------------------------------------|
  |-----6-----| |-----6-----| |-----6-----| |-----6-----|
  S S  S S S  S S S  S S S  S S S  S S S  S S S  S S S  S
|----------------------------------------------------------||
|----------------------------------------------------------||
|----------------------------------------------------------||
|----------------------------------------------------------||
|----------------------------------------------------------||
|-5-6--8-5-6--8-5-6--8-5-6--8-5-6--8-5-6--8-5-6--8-5-6--8--||
|
|------------------------------------------------------|
| |-----6-----| |-----6-----| |-----6-----| |-----6-----|
| S S  S S S  S S S  S S S  S S S  S S S  S S S  S S S  S
|----------------------------------------------------------||
|----------------------------------------------------------||
|----------------------------------------------------------||
|----------------------------------------------------------||
|-7-8-10-7-8-10-7-8-10-7-8-10-7-8-10-7-8-10-7-8-10-7-8-10--||
|----------------------------------------------------------||


 Guitar Solo I
 3/4
  Gtr I
   T  T  T  T  T  T  T  T  T  T  T  T  T  T  T  T  T  T  T  T  T  T  T  T
|----------------10h13p10----------------------------13h16p13-------------|
|-------------11----------11----------------------14----------14----------|
|----------10----------------10----------------13----------------13-------|
|-------12----------------------12----------15----------------------15----|
|----13----------------------------13----16----------------------------16-|
|-15----------------------------------15----------------------------------|


   T  T  T  T  T  T  T  T  T  T  T  T  T  T  T  T  T  T  T  T  T  T  T  T
|----------------16h19p16----------------------------18h21p18---------------|
|-------------17----------17----------------------19----------19------------|
|----------16----------------16----------------18----------------18---------|
|-------18----------------------18----------20----------------------20------|
|----19----------------------------19----21----------------------------21---|
|-18----------------------------------21------------------------------------|


  Q=208
 4/4
  Gtr I
   ~~~              ~~~~~~~~~      ~~~~~~~     ~~~
   H.            E  E    +Q     E  E  +Q    E  E
|---------------------|--------------------------|
|---------------------|--------------------------|
|---------------------|--------------------------|
|-11------------12p11-|-(11)---12p11-(11)---9h11-|
|---------------------|--------------------------|
|---------------------|--------------------------|
|
| Gtr II
|     PM|   PM|     PM--|       PM|       PM
|  E  E E E E E  E  E     E  E  E  E   E  E E  E
|---------------------|--------------------------|
|---------------------|--------------------------|
|---------------------|--------------------------|
|--6------7------6----|------7---------6---------|
|-----4-4---4-4-----4-|---4-----4--4------4-7p=4-|
|---------------------|--------------------------|


                                  B5
 ~~~~~~             ~~~~~~~~
   +H.            E E   +W
|---------------------|-----------------|
|---------------------|-----------------|
|---------------------|-----------------|
|-(11)-----------11s9-|-(9)-------------|
|---------------------|-----------------|
|---------------------|-----------------|
|
|      PM|   PM|    PM--|     PM|
|   E  E E E E E  E E    E  E E E Q  Q
|---------------------|-----------------|
|---------------------|-----------------|
|---------------------|-----------------|
|---6------7------6---|-----7-----4--4--|
|------4-4---4-4----4-|--4----4-4-2--2--|
|---------------------|-----------------|


  N.C.
   ~~~              ~~~~~~~~~      ~~~~~~~      ~~~
   H.            E  E    +Q     E  E  +Q     E  E
|---------------------|---------------------------|
|-14------------15p14-|-(14)---15p14-(14)---12h14-|
|---------------------|---------------------------|
|---------------------|---------------------------|
|---------------------|---------------------------|
|---------------------|---------------------------|
|
|     PM|   PM|     PM--|       PM|       PM
|  E  E E E E E  E  E     E  E  E  E   E  E  E  E
|---------------------|---------------------------|
|---------------------|---------------------------|
|---------------------|---------------------------|
|--6------7------6----|------7---------6----------|
|-----4-4---4-4-----4-|---4-----4--4------4--7p=4-|
|---------------------|---------------------------|


                                       B5
 ~~~~~~                 ~~~~~~~~~
   +H.            S  S  E    +H         +H
|-------------------------|----------------------|
|-(14)-----------12h14p12-|-(12)-------(12)\-----|
|-------------------------|----------------------|
|-------------------------|----------------------|
|-------------------------|----------------------|
|-------------------------|----------------------|
|
|      PM|   PM|        PM--|      PM|
|   E  E E E E E  E     E     E  E E E   Q    Q
|-------------------------|----------------------|
|-------------------------|----------------------|
|-------------------------|----------------------|
|---6------7------6-------|------7-------4----4--|
|------4-4---4-4--------4-|---4----4-4---2----2--|
|-------------------------|----------------------|


  N.C.
   E      +E   +H         +E     S  S
|-16-----(16)-(16)-------(16)---14-16-|
|-19b21==(19)-(19)-------(19)r\-------|
|-------------------------------------|
|-------------------------------------|
|-------------------------------------|
|-------------------------------------|
|
|          PM-|      PM|         PM----
|  E       E    E  E E E   E     E
|-------------------------------------|
|-------------------------------------|
|-------------------------------------|
|-------------------------------------|
|--6---------------7-------6----------|
|----------4----4----4-4---------4----|


   S  S  S  S  S  S  S  S  S  S  S  S  S  S  S   S
|-17-16-19-17-16-17-16-19-17-16-17-16-17-16-14------|
|----------------------------------------------(14)-|
|---------------------------------------------------|
|---------------------------------------------------|
|---------------------------------------------------|
|---------------------------------------------------|
|
|-|            PM---|            PM
|  E     E     E     E     E     E     E     E
|---------------------------------------------------|
|---------------------------------------------------|
|---------------------------------------------------|
|---------------------------------------------------|
|--------7-----------------6------------------------|
|--4-----------4-----4-----------4-----7p====4------|


   S  S  S  S  S  S  S  S  S  S  S  S  S  S  S  S
|-17-16-17-16-14-17-16-17-16-14-17-16-19-17-16-17-|
|-------------------------------------------------|
|-------------------------------------------------|
|-------------------------------------------------|
|-------------------------------------------------|
|-------------------------------------------------|
|
|        PM---|            PM---|            PM----
|  E     E     E     E     E     E     E     E
|-------------------------------------------------|
|-------------------------------------------------|
|-------------------------------------------------|
|-------------------------------------------------|
|--6-----------------7-----------------6----------|
|--------4-----4-----------4-----4-----------4----|


                          F#5
   S  S  S  S  S  S  S  S  S  S  S  S  S  S  E
|-16-17-16-14-17-16-17-16-14-17-16-17-16-14-19-|
|----------------------------------------------|
|----------------------------------------------|
|----------------------------------------------|
|----------------------------------------------|
|----------------------------------------------|
|
|-|            PM---|
|  E     E     E     E     Q           Q
|----------------------------------------------|
|----------------------------------------------|
|----------------------------------------------|
|----------------------------------------------|
|--------7-----------------4-----------4-------|
|--4-----------4-----4-----2-----------2-------|


  N.C.
           ~~~~~~~~~~~~~~~~~~~~~~~~~~~
   E      +E   +H.               H.               E  S  S
|-19b21==(19)-(19)r-----------|-19b21-----------/16-16-16-|
|-----------------------------|---------------------------|
|-----------------------------|---------------------------|
|-----------------------------|---------------------------|
|-----------------------------|---------------------------|
|-----------------------------|---------------------------|
|
|          PM-|       PM|   PM--|       PM|   PM
|  E       E    E   E E E E E    E    E E E E E   E  E
|-----------------------------|---------------------------|
|-----------------------------|---------------------------|
|-----------------------------|---------------------------|
|-----------------------------|---------------------------|
|--6----------------7-----6---|-------7-----6-------------|
|----------4----4-----4-4---4-|--4------4-4---4---7p=4----|


                                                           F#5
                                                  ~~~
   S  S  S  S  S  S  S  S  S  S  S  S  E.    S    H.           +Q
|-16-17-16-14----------------------------------|---------------------|
|-------------17-16-14-17-16-14-16-12----------|---------------------|
|-------------------------------------14----11-|-13-----------(13)\--|
|----------------------------------------------|---------------------|
|----------------------------------------------|---------------------|
|----------------------------------------------|---------------------|
|
|        PM---|            PM---|         PM-----|     PM|
|  E     E     E     E     E     E     E  E       E  E E E Q    Q
|----------------------------------------------|---------------------|
|----------------------------------------------|---------------------|
|----------------------------------------------|---------------------|
|----------------------------------------------|---------------------|
|--6-----------------7-----------------6-------|-----7-----4----4----|
|--------4-----4-----------4-----4--------4----|--4----4-4-2----2----|


  N.C.
    |----3----|    |---------3---------|               |----3----|
    q    q    q    q    e..      q    +T     q    q    q    q    q
|-----------------------------------------|--------------------------|
|------------13---14---14b16====14---(14)-|-14---14---14---14---14---|
|-/13---14--------------------------------|--------------------------|
|-----------------------------------------|--------------------------|
|-----------------------------------------|--------------------------|
|-----------------------------------------|--------------------------|
|
|     PM---|       PM|             PM-------|     PM|    PM
|   E E    E    E  E E        E    E         E E  E E  E E    E    E
|-----------------------------------------|--------------------------|
|-----------------------------------------|--------------------------|
|-----------------------------------------|--------------------------|
|-----------------------------------------|--------------------------|
|---6-----------7-------------6-----------|----7-------6-------------|
|-----4----4-------4-4-------------4------|--4----4-4----4----7p===4-|


                                                            F#5
   ~~~                                                    ~~~~~~~
   H         S  S  S  S  S  S  S  S    S  S S  S S  S  S  S  +Q.     +E
|-----------------------------------|-------------------------------------|
|-14r-------14-10-14-10-------------|-------------------------------------|
|-----------------------13-11-13-11-|-13-11-9-11-9------------------------|
|-----------------------------------|--------------13-11-13-(13)----(13)\-|
|-----------------------------------|-------------------------------------|
|-----------------------------------|-------------------------------------|
|
|     PM|    PM---|            PM-----|          PM---|
|  E  E E E  E     E     E     E       E    E    E     E      Q   Q
|-----------------------------------|-------------------------------------|
|-----------------------------------|-------------------------------------|
|-----------------------------------|-------------------------------------|
|-----------------------------------|-------------------------------------|
|--6------7--------------6----------|-------7-----------------4---4-------|
|-----4-4----4-----4-----------4----|--4---------4-----4------2---2-------|


  N.C.
  PM-----------------------------------------
  S S  S S  S  S  S  S S  S  S S  S  S S  S
|-------------------------------------------|
|-------------------------------------------|
|-------------------------------------------|
|-------------------------------------------|
|----------------------9-11----9-11----9-11-|
|-7-9-11-9-11-12-11-12------12------12------|
|
|      PM--|           PM---|          PM----
| E    E    E     E    E     E    E    E
|-------------------------------------------|
|-------------------------------------------|
|-------------------------------------------|
|-------------------------------------------|
|-6---------------7---------------6---------|
|------4----4----------4-----4---------4----|


 --------------------------------------------|
  S  S  S  S  S S  S  S  S  S  S  S  S  S  S  S
|------------------------------------------------|
|------------------------------------------------|
|------------------------------------------------|
|------------11-9-11-13-14-14-11-11-14-14-11-11--|
|-9-11-12-14-------------------------------------|
|------------------------------------------------|
|
|-|           PM--|            PM
| E     E     E    E     E     E     E     E
|------------------------------------------------|
|------------------------------------------------|
|------------------------------------------------|
|------------------------------------------------|
|-------7----------------6-----------------------|
|-4-----------4----4-----------4-----7p====4-----|


                                                           F#5
                                                   ~~
                           |---3---|  |---3---|
   S  S  S  S  S  S  S  S  E  E    E  E  E    E    W
|-----------------------------------------------|----------------|
|-----------------------------------------------|----------------|
|-13-14-14-14-14-14-14-13-14-13---11-14-13---11-|-13-------------|
|-----------------------------------------------|----------------|
|-----------------------------------------------|----------------|
|-----------------------------------------------|----------------|
|
|        PM---|            PM---|          PM-----|    PM|
|  E     E     E     E     E    E     E    E       E E E E Q  Q
|-----------------------------------------------|----------------|
|-----------------------------------------------|----------------|
|-----------------------------------------------|----------------|
|-----------------------------------------------|----------------|
|--6-----------------7----------------6---------|----7-----4--4--|
|--------4-----4-----------4----4----------4----|--4---4-4-2--2--|


  C#5
   |-3--|      |-3--|        |--3--|      |-3--|
   E  E E  Q   E  E E  Q     E   E E  Q   E  E E  Q
|-------------------------|--------------------------|
|-14----------14----------|-14-----------14----------|
|----13p9--------13p9-----|-----13p9--------13p9-----|
|---------11----------11--|----------11----------11--|
|-------------------------|--------------------------|
|-------------------------|--------------------------|
|
|  W                        +W
|-------------------------|--------------------------|
|-------------------------|--------------------------|
|--6----------------------|-(6)----------------------|
|--6----------------------|-(6)----------------------|
|--4----------------------|-(4)----------------------|
|-------------------------|--------------------------|


  B5
   |-3--|     |-3--|       |--3--|     |-3--|
   E  E E Q   E  E E Q     E   E E Q   E  E E Q
|-12---------12---------|-12----------12-----------|
|----12p9-------12p9----|-----12p9-------12p9------|
|---------9----------9--|----------9----------9----|
|-----------------------|--------------------------|
|-----------------------|--------------------------|
|-----------------------|--------------------------|
|
|  W                      +W
|-----------------------|--------------------------|
|-----------------------|--------------------------|
|--4--------------------|-(4)----------------------|
|--4--------------------|-(4)----------------------|
|--2--------------------|-(2)----------------------|
|-----------------------|--------------------------|


  A5
   |--3--|      |--3--|        |--3---|      |--3--|
   E  E  E  Q   E  E  E  Q     E   E  E  Q   E  E  E  Q
|-14-----------14-----------|-14------------14-----------|
|----14p10--------14p10-----|-----14p10--------14p10-----|
|----------11-----------11--|-----------11-----------11--|
|---------------------------|----------------------------|
|---------------------------|----------------------------|
|---------------------------|----------------------------|
|
|  W                          +W
|---------------------------|----------------------------|
|---------------------------|----------------------------|
|---------------------------|----------------------------|
|--7------------------------|-(7)------------------------|
|--7------------------------|-(7)------------------------|
|--5------------------------|-(5)------------------------|


  B5                          E5
            ~~                 ~~
   |--3--|           |--3---|
   Q  Q  Q  H        q   q  q  H
|-16--------------|------------------|
|----16----16-----|------------------|
|-------13--------|-13--14-11-13-----|
|-----------------|------------------|
|-----------------|------------------|
|-----------------|------------------|
|
|  W                +H         Q  Q
|-----------------|------------------|
|-----------------|------------------|
|-----------------|------------9--9--|
|--9--------------|-(9)--------9--9--|
|--9--------------|-(9)--------7--7--|
|--7--------------|-(7)--------------|


  C#5                       B5
  H    Q  Q    +W            H     Q   Q        +W
|------------|------------|------------------|---------|
|------------|------------|------------------|---------|
|-6----8--9--|-(9)--------|-14----13--11b13r=|=(11)----|
|------------|------------|------------------|---------|
|-4----6--7--|-(7)--------|-12----11---9b11r=|==(9)----|
|------------|------------|------------------|---------|
|
| W            +W            W                  +W
|------------|------------|------------------|---------|
|------------|------------|------------------|---------|
|-6----------|-(6)--------|--4---------------|--(4)----|
|-6----------|-(6)--------|--4---------------|--(4)----|
|-4----------|-(4)--------|--2---------------|--(2)----|
|------------|------------|------------------|---------|


    A5
      ~~~~~~
                    |-3--|
  a E E +H.         q  q q S. T +S  S  e e
|----------------|-------------------------|
|----------------|-------7----9-(9)---10-9-|
|-8h9p8-(8)------|--8--9-------------------|
|----------------|-------------------------|
|----------------|-------------------------|
|----------------|-------------------------|
|
|   W              +W
|----------------|-------------------------|
|----------------|-------------------------|
|----------------|-------------------------|
|---7------------|-(7)---------------------|
|---7------------|-(7)---------------------|
|---5------------|-(5)---------------------|


  B5                           E5
                            ~~~~~~~~~~
  E S S E E E e E E    E  E H     +E  E
|-------------------|-------------------|
|---7h9p7---7-------|-----------------9-|
|---------9---9-9---|--8h=9p8-----(8)---|
|-------------------|-------------------|
|-------------------|-------------------|
|-------------------|-------------------|
|
| W                   +H       Q   Q
|-------------------|-------------------|
|-------------------|-------------------|
|-------------------|----------9---9----|
|-9-----------------|-(9)------9---9----|
|-9-----------------|-(9)------7---7----|
|-7-----------------|-(7)---------------|


  C#5
                       ~~~                            ~~~
   S S  S S S  S S  S  Q.   E    S  S  S S S  S S  S  Q.    S  S
|-----------------------------|----------------------------11-11-|
|-10-9------9---------------9-|-10--9------9---------------------|
|------11-9---11-9------------|-------11-9---11-9----------------|
|------------------11-13------|-------------------11-13----------|
|-----------------------------|----------------------------------|
|-----------------------------|----------------------------------|
|
|  W                            +W
|-----------------------------|----------------------------------|
|-----------------------------|----------------------------------|
|--6--------------------------|-(6)------------------------------|
|--6--------------------------|-(6)------------------------------|
|--4--------------------------|-(4)------------------------------|
|-----------------------------|----------------------------------|


  B5
                         |--3--|    |--3---|  |--3--|
   S  S S  S  S S  S  S  q  q  q    q   q  q  q  q  q
|-12-11-9----11-9----------------|-----------------------|
|---------12------12-------------|-----------------------|
|--------------------11-13-14-13-|-11--------------------|
|--------------------------------|-----14-13-11----------|
|--------------------------------|--------------12-11----|
|--------------------------------|-----------------------|
|
|  W                               +W
|--------------------------------|-----------------------|
|--------------------------------|-----------------------|
|--4-----------------------------|-(4)-------------------|
|--4-----------------------------|-(4)-------------------|
|--2-----------------------------|-(2)-------------------|
|--------------------------------|-----------------------|


  A5
  ~~~~~~~~~~~~PM----------------------------------------------------
  H.      +E  S S    S  S  S  S  S  S  S  S  S  S  S  S  S S  S  S
|-----------------|------------------------------------------------|
|-----------------|------------------------------------------------|
|-----------------|------------------------------------------------|
|-----------------|------------------------------------------------|
|-9-------(9)-9-9-|-11--9-11-12-11-12-14-12-14-12-11-12-11-9-11-12-|
|-----------------|------------------------------------------------|
|
| W                 +W
|-----------------|------------------------------------------------|
|-----------------|------------------------------------------------|
|-----------------|------------------------------------------------|
|-7---------------|-(7)--------------------------------------------|
|-7---------------|-(7)--------------------------------------------|
|-5---------------|-(5)--------------------------------------------|


  B5                                                   E5
 -----------------------------------------|      ~~~~
   S  S  S  S  S S  S S  S S  S S  S S  S  S     W
|--------------------------------------------|----------------|
|--------------------------------------------|----------------|
|--------------------------------------------|----------------|
|--------------------------------------------|----------------|
|-11-12-14-12-11-9----9----9-11-9----9-11----|----------------|
|------------------12---12--------12------12-|-[11]-----------|
|
|  W                                            +H     Q  Q
|--------------------------------------------|----------------|
|--------------------------------------------|----------------|
|--------------------------------------------|---------9--9---|
|--9-----------------------------------------|--(9)----9--9---|
|--9-----------------------------------------|--(9)----7--7---|
|--7-----------------------------------------|--(7)-----------|


  C#5                              B5
                       ~~~                               ~~~
  |--3--| |--3--|                  |--3--|  |--3--|
  Q  Q  Q Q  Q  Q      W           Q  Q  Q  Q  Q  Q      W
|-------------------|------------|--------------------|--------|
|-------------------|------------|--------------------|--------|
|-------------------|------------|--------------------|--------|
|-------------------|------------|---------11-13-14---|-13-----|
|---------9-11-12---|-11---------|-9-11-12------------|--------|
|-9-11-12-----------|------------|--------------------|--------|
|
| W                   +W           W                    +W
|-------------------|------------|--------------------|--------|
|-------------------|------------|--------------------|--------|
|-6-----------------|-(6)--------|-4------------------|-(4)----|
|-6-----------------|-(6)--------|-4------------------|-(4)----|
|-4-----------------|-(4)--------|-2------------------|-(2)----|
|-------------------|------------|--------------------|--------|


  A5
   |--3--|  |--3--|      |--3---|  |--3--|
   q  q  q  q  q  q      q   q  q  q  q  q
|---------------------|----------------------|
|---------------------|-14--16-17-16-14------|
|-13-14----13-14-16---|-----------------16---|
|-------16------------|----------------------|
|---------------------|----------------------|
|---------------------|----------------------|
|
|  W                    +W
|---------------------|----------------------|
|---------------------|----------------------|
|---------------------|----------------------|
|--7------------------|-(7)------------------|
|--7------------------|-(7)------------------|
|--5------------------|-(5)------------------|


  G#5    N.C.
           ~~~~~~~~~~~~~~~~~
   Q      +H.           +W
|--------------------|--------------|
|--------------------|--------------|
|-16b18--(16)--------|-(16)---------|
|--------------------|--------------|
|--------------------|--------------|
|--------------------|--------------|
|
|                             ~~~
|  Q       Q   Q  Q      Q    H.
|--------------------|--------------|
|--------------------|--------------|
|--------------------|--------------|
|--------------------|--------------|
|--6-----------------|--------------|
|--4-------0---2--4--|---5---[7]----|


   E  E  E  E  S  S  E  E  E    E  E  E  E  S  S  E  E  E
|----------------------------|----------------------------|
|----------14-14h16p14-------|----------14-14h16p14-------|
|-13-15-16-------------16-15-|-13-15-16-------------16-15-|
|----------------------------|----------------------------|
|----------------------------|----------------------------|
|----------------------------|----------------------------|
|
|     PM|      PM---|      PM--|      PM|         PM
|  E  E  E  E  E     E  E  E    E  E  E  E  E     E  E  E
|----------------------------|----------------------------|
|----------------------------|----------------------------|
|----------------------------|----------------------------|
|----------------------------|----------------------------|
|--6--------7-----------6----|-----7--------6-------------|
|-----4--4-----4-----4-----4-|--4-----4--4--------4--7p=4-|


                                        F#5 A5
                                         ~~
   E  E  E  E  E  E  E  E    E  E  E  E  H
|-------------------------|--------------------|
|----------14-16-17-16-14-|----14--------------|
|-13-15-16----------------|-16----16-13-15-----|
|-------------------------|--------------------|
|-------------------------|--------------------|
|-------------------------|--------------------|
|
|     PM|      PM|      PM--|      PM|
|  E  E  E  E  E  E  E  E    E  E  E  E  Q  Q
|-------------------------|--------------------|
|-------------------------|--------------------|
|-------------------------|--------------------|
|-------------------------|--------------------|
|--6--------7--------6----|-----7--------4--7--|
|-----4--4-----4--4-----4-|--4-----4--4--2--5--|


  N.C.
   S  S  S  S  S  S  S  S  S  S  S  S  S  S  S  S
|-19-16-16-16-16-16-19-16-16-16-16-16-19-16-16-16-|
|-------------------------------------------------|
|-------------------------------------------------|
|-------------------------------------------------|
|-------------------------------------------------|
|-------------------------------------------------|
|
|        PM---|            PM---|            PM----
|  E     E     E     E     E     E     E     E
|-------------------------------------------------|
|-------------------------------------------------|
|-------------------------------------------------|
|-------------------------------------------------|
|--6-----------------7-----------------6----------|
|--------4-----4-----------4-----4-----------4----|


   S  S  S  S  S  S  S  S  S  S  S  S  S  S  S  S
|-19-16-16-16-16-16-19-16-16-16-16-16-19-16-16-16--|
|--------------------------------------------------|
|--------------------------------------------------|
|--------------------------------------------------|
|--------------------------------------------------|
|--------------------------------------------------|
|
|-|            PM---|            PM
|  E     E     E     E     E     E     E     E
|--------------------------------------------------|
|--------------------------------------------------|
|--------------------------------------------------|
|--------------------------------------------------|
|--------7-----------------6-----------------------|
|--4-----------4-----4-----------4-----7p====4-----|


                                                             F#5    A5
                                                     ~~
   S  S  S  S  S  S  S  S  S  S  S  S  S  S  S  S    H        +H
|-19-16-16-16-16-16-19-16-16-16-16-16-19-16-16-16-|--------------------|
|-------------------------------------------------|-17-------(17)\-----|
|-------------------------------------------------|--------------------|
|-------------------------------------------------|--------------------|
|-------------------------------------------------|--------------------|
|-------------------------------------------------|--------------------|
|
|        PM---|            PM---|            PM-----|    PM|
|  E     E     E     E     E     E     E     E       E E E E   Q    Q
|-------------------------------------------------|--------------------|
|-------------------------------------------------|--------------------|
|-------------------------------------------------|--------------------|
|-------------------------------------------------|--------------------|
|--6-----------------7-----------------6----------|----7-------4----7--|
|--------4-----4-----------4-----4-----------4----|--4---4-4---2----5--|


  N.C.
   E  E  E  E  E  E  E  E    E  E  E  E  E  E  E  E
|-------------------------|-------------------------|
|-------------------------|-------------------------|
|----15-15-------16-16----|----18-18-------20-20----|
|-13-------14-14-------16-|-16-------18-18-------18-|
|-------------------------|-------------------------|
|-------------------------|-------------------------|
|
|     PM|      PM|      PM--|      PM|      PM
|  E  E  E  E  E  E  E  E    E  E  E  E  E  E  E  E
|-------------------------|-------------------------|
|-------------------------|-------------------------|
|-------------------------|-------------------------|
|-------------------------|-------------------------|
|--6--------7--------6----|-----7--------6----------|
|-----4--4-----4--4-----4-|--4-----4--4-----4--7p=4-|


                                                                 F#5 A5
                                                                  ~~
   |----3----|    |----3----|            |--------3--------|
   q    q    q    q    q    q      +T   +T.  E..    E..    E..    H
|-------------------------------|---------------------------------------|
|----------------19-------------|---------------------------------------|
|------20---21--------21---20---|-(20)-(20)-18-----20-----21-----20-----|
|-18----------------------------|---------------------------------------|
|-------------------------------|---------------------------------------|
|-------------------------------|---------------------------------------|
|
|    PM---|       PM|         PM--|                     PM-----|
|  E E    E    E  E E    E    E     E            E      E      E  Q  Q
|-------------------------------|---------------------------------------|
|-------------------------------|---------------------------------------|
|-------------------------------|---------------------------------------|
|-------------------------------|---------------------------------------|
|--6-----------7---------6------|----------------7----------------4--7--|
|----4----4-------4-4---------4-|---4-------------------4------4--2--5--|


  N.C.
   S  S  S  S  S  S  S  S  S  S  S  S  S  S  S  S
|-------------------------------------------------|
|-------------------------------------------------|
|-21-20-18-20-18----18----------------------------|
|----------------21----21-19-18-16-18-16-18-19-18-|
|-------------------------------------------------|
|-------------------------------------------------|
|
|        PM---|            PM---|            PM----
|  E     E     E     E     E     E     E     E
|-------------------------------------------------|
|-------------------------------------------------|
|-------------------------------------------------|
|-------------------------------------------------|
|--6-----------------7-----------------6----------|
|--------4-----4-----------4-----4-----------4----|


                           ~~
   S  S  S  S  S  S  S  S  H
|----------------------------------|
|----------------------------------|
|----------------------------------|
|----18----------18----------------|
|-21----21-19-21----21-16-18-------|
|----------------------------------|
|
|-|            PM---|        PM
|  E     E     E     E     E E E E
|----------------------------------|
|----------------------------------|
|----------------------------------|
|----------------------------------|
|--------7-----------------6-------|
|--4-----------4-----4-------4-7p4-|


                                        D.S.S. al Dbl. Coda
  G#5                                               A5 G#F#G#5
                                                     ~~
   S  S  S  S  S  S  S  S  S  S  S  S  S  S  S  S    W
|-------------------------------------------------|-------------||
|-------------------------------------------------|-------------||
|-------------------------------------13-15-16-13-|-15----------||
|----------------------------13-14-16-------------|-------------||
|-------------------13-14-16----------------------|-------------||
|-16-17-16-14-16-17-------------------------------|-------------||
|
|                                                    |-3-|
|  W                                                 Q Q Q H
|-------------------------------------------------|-------------||
|-------------------------------------------------|-------------||
|-------------------------------------------------|-------------||
|-------------------------------------------------|-------------||
|--6----------------------------------------------|--7-6-4-6----||
|--4----------------------------------------------|--5-4-2-4----||


  Q=104
  &&
  N.C.                                              B5 E5 D5 C#5
  Gtrs I, II
  PM--------------------------------------------|
  |----6----| |----6----| |----6----| |----6----|
  S S S S S S S S S S S S S S S S S S S S S S S S   Q  Q  Q  Q
|-------------------------------------------------|--------------|
|-------------------------------------------------|--------------|
|-------------------------------------------------|--------------|
|-------------------------------------------------|-4--9--7--6---|
|-2-2-2-2-2-2-2-2-2-2-2-2-2-2-2-2-2-2-2-2-2-2-2-2-|-2--7--5--4---|
|-------------------------------------------------|--------------|


  N.C.                                              B5 C#5D5 N.C.
  PM--------------------------------------------|             ~~~
  |----6----| |----6----| |----6----| |----6----|
  S S S S S S S S S S S S S S S S S S S S S S S S   Q  Q  Q   Q
|-------------------------------------------------|----------------||
|-------------------------------------------------|----------------||
|-------------------------------------------------|----------------||
|-------------------------------------------------|-4--6--7--[9]---||
|-2-2-2-2-2-2-2-2-2-2-2-2-2-2-2-2-2-2-2-2-2-2-2-2-|-2--4--5--------||
|-------------------------------------------------|----------------||


   Interlude
    Q=208
    Gtr I
      PM|   PM|   PM--|   PM|   PM        PM|   PM|   PM--|   PM|   PM  PM
    E E E E E E E E   E E E E E E E E   E E E E E E E E   E E E E E E E E
||------------------|-----------------|-----------------|-------------------||
||o-----------------|-----------------|-----------------|------------------o||
||------------------|---5-----4-------|-----------------|---5-----4---------||
||--4-----5-----4---|-------------4h5-|-4-----5-----4---|-------------5-----||
||o---2-2---2-2---2-|-2---2-2---2-----|---2-2---2-2---3-|-3---3-3---3---3--o||
||------------------|-----------------|-----------------|-------------------||
|
|   Gtr II
|     PM|   PM|   PM--|   PM|   PM        PM|   PM|   PM--|   PM|   PM  PM
|   E E E E E E E E   E E E E E E E E   E E E E E E E E   E E E E E E E E
||------------------|-----------------|-----------------|-------------------||
||o-----------------|---6-----5-------|-----------------|---6-----5--------o||
||--4-----5-----4---|-------------4h5-|-4-----5-----4---|-------------5-----||
||------------------|-----------------|-----------------|-------------------||
||o---2-2---2-2---2-|-2---2-2---2-----|---2-2---2-2---3-|-3---3-3---3---3--o||
||------------------|-----------------|-----------------|-------------------||


  Q=104
  PM-----------------------------------------------
  |----6----| |----6----| |----6----| |----6----|
  S S S S S S S S S S S S S S S S S S S S S S S S
|-------------------------------------------------|
|-------------------------------------------------|
|-------------------------------------------------|
|-------------------------------------------------|
|-2-2-2-2-2-2-3-3-3-5-5-5-5-5-5-2-2-2-3-3-3-5-5-5-|
|-------------------------------------------------|
|
| PM-----------------------------------------------
| |----6----| |----6----| |----6----| |----6----|
| S S S S S S S S S S S S S S S S S S S S S S S S
|-------------------------------------------------|
|-------------------------------------------------|
|-------------------------------------------------|
|-4-4-4-4-4-4-5-5-5-7-7-7-7-7-7-4-4-4-5-5-5-7-7-7-|
|-------------------------------------------------|
|-------------------------------------------------|


 -----------------------------------------------|
  |----6----| |----6----| |----6----| |----6----|
  S S S S S S S S S S S S S S S S S S S S S S S S
|--------------------------------------------------|
|--------------------------------------------------|
|--------------------------------------------------|
|--------------------------------------------------|
|-2-2-2-2-2-2-3-3-3-5-5-5-5-5-5-2-2-2-3-3-3-5-5-5--|
|--------------------------------------------------|
|
|-----------------------------------------------|
| |----6----| |----6----| |----6----| |----6----|
| S S S S S S S S S S S S S S S S S S S S S S S S
|--------------------------------------------------|
|--------------------------------------------------|
|--------------------------------------------------|
|-4-4-4-4-4-4-5-5-5-7-7-7-7-7-7-4-4-4-5-5-5-7-7-7--|
|--------------------------------------------------|
|--------------------------------------------------|


  PM-----------------------------------------------
  |----6----| |----6----| |----6----| |----6----|
  S S S S S S S S S S S S S S S S S S S S S S S S
|-------------------------------------------------|
|-------------------------------------------------|
|-------------------------------------------------|
|-------------------------------------------------|
|-2-2-3-3-5-5-2-2-3-3-5-5-2-2-3-3-5-5-2-2-3-3-5-5-|
|-------------------------------------------------|
|
| PM-----------------------------------------------
| |----6----| |----6----| |----6----| |----6----|
| S S S S S S S S S S S S S S S S S S S S S S S S
|-------------------------------------------------|
|-------------------------------------------------|
|-------------------------------------------------|
|-4-4-5-5-7-7-4-4-5-5-7-7-4-4-5-5-7-7-4-4-5-5-7-7-|
|-------------------------------------------------|
|-------------------------------------------------|


 -----------------------------------------------|
  |----6----| |----6----| |----6----| |----6----|
  S S S S S S S S S S S S S S S S S S S S S S S S
|--------------------------------------------------||
|--------------------------------------------------||
|--------------------------------------------------||
|--------------------------------------------------||
|-2-3-5-2-3-5-2-3-5-2-3-5-2-3-5-2-3-5-2-3-5-2-3-5--||
|--------------------------------------------------||
|
|-----------------------------------------------|
| |----6----| |----6----| |----6----| |----6----|
| S S S S S S S S S S S S S S S S S S S S S S S S
|--------------------------------------------------||
|--------------------------------------------------||
|--------------------------------------------------||
|-4-5-7-4-5-7-4-5-7-4-5-7-4-5-7-4-5-7-4-5-7-4-5-7--||
|--------------------------------------------------||
|--------------------------------------------------||


 Breakdown
  Q=208
                                      E5  N.C.                   Bb5
    PM|   PM|   PM--|   PM|   PM        PM|    PM|   PM--|   PM|
  E E E E E E E E   E E E E E E E E   E E E  E E E E E   E E E E Q   Q
|-----------------|-----------------|------------------|----------------|
|-----------------|-----------------|------------------|----------------|
|-----------------|-----------------|------------------|----------------|
|-----------------|-----------------|------------------|----------------|
|-7-----5-----7---|---8-----7-------|-7------5-----7---|---8-----8---8--|
|---0-0---0-0---0-|-0---0-0---0-3p0-|---0-0----0-0---0-|-0---0-0-6---6--|
|
| W                 W                 E E H.             H       H
|-----------------|-----------------|------------------|----------------|
|-----------------|-----------------|------------------|----------------|
|-----------------|-----------------|------------------|----------------|
|-----------------|-----------------|------------------|----------------|
|-----------------|-----------------|-2-2--------------|---------8\-----|
|-----------------|-----------------|-0-0--------------|---------6\-----|


  E5N.C.                               E5  N.C.                   Bb5
    PM|    PM|   PM--|   PM|   PM        PM|    PM|   PM--|   PM|
  E E E  E E E E E   E E E E E E E E   E E E  E E E E E   E E E E  Q   Q
|------------------|-----------------|------------------|-----------------||
|------------------|-----------------|------------------|-----------------||
|------------------|-----------------|------------------|-----------------||
|------------------|-----------------|------------------|-----------------||
|-7------5-----7---|---8-----7-------|-7------5-----7---|---8------8---8--||
|---0-0----0-0---0-|-0---0-0---0-3p0-|---0-0----0-0---0-|-0---0-0--6---6--||
|
| E E H.             W                 E E H.             H        H
|------------------|-----------------|------------------|-----------------||
|------------------|-----------------|------------------|-----------------||
|------------------|-----------------|------------------|-----------------||
|------------------|-----------------|------------------|-----------------||
|-2----------------|-----------------|-2-2--------------|-----------------||
|-0----------------|-----------------|-0-0--------------|---------12\-----||


   Out-Chorus
    N.C.                                                          Bb5
    Gtrs I, II
      PM|   PM|   PM--|   PM|   PM        PM|   PM|   PM--|   PM|
    E E E E E E E E   E E E E E E E E   E E E E E E E E   E E E E Q  Q    4x
||------------------|-----------------|-----------------|-----------------||
||o-----------------|-----------------|-----------------|----------------o||
||------------------|-----------------|-----------------|-----------------||
||------------------|-----------------|-----------------|-----------------||
||o-7-----5-----7---|---8-----7-------|-7-----5-----7---|---8-----8--8---o||
||----0-0---0-0---0-|-0---0-0---0-3p0-|---0-0---0-0---0-|-0---0-0-6--6----||


    Q=104
    N.C.                                                      Bb5
      PM|   PM|   PM|   PM|   PM        PM|   PM|   PM|   PM|
    S S S S S S S S S S S S S S S S   S S S S S S S S S S S S E E
||----------------------------------|------------------------------||
||o---------------------------------|-----------------------------o||
||----------------------------------|------------------------------||
||----------------------------------|------------------------------||
||o-7-----5-----7-----8-----7-------|-7-----5-----7-----8-----8-8-o||
||----0-0---0-0---0-0---0-0---0-3p0-|---0-0---0-0---0-0---0-0-6-6--||


   Guitar Solo II
    Q=208
    N.C.
    Gtr I
     S  S  S  S  S  S  S  S  S  S  S  S  S  S  S  S
||--------------------------------------------------|
||o-14p10----10h14p10-14p10----10h14p10-14p10----10h|
||--------11----------------11----------------11----|
||--------------------------------------------------|
||o-------------------------------------------------|
||--------------------------------------------------|
|
|   Gtr II
|          PM---|            PM---|            PM----
|    E     E     E     E     E     E     E     E
||--------------------------------------------------|
||o-------------------------------------------------|
||--------------------------------------------------|
||--------------------------------------------------|
||o--4-----------------5-----------------4----------|
||---------2-----2-----------2-----2-----------2----|
|
|   Gtr V
|    S  S  S  S  S  S  S  S  S  S  S  S  S  S  S  S
||--------------------------------------------------|
||o-------------------------------------------------|
||--11p=6-----6h11p=6-11p=6-----6h11p=6-11p=6-----6h|
||---------9-----------------9-----------------9----|
||o-------------------------------------------------|
||--------------------------------------------------|


   S  S  S  S  S  S  S  S  S  S  S  S  S  S  S  S
|-------------------------------------------------|
|-14----15p10----10----10h14p10----10h14p10----10-|
|----11-------11----11----------11----------11----|
|-------------------------------------------------|
|-------------------------------------------------|
|-------------------------------------------------|
|
|-|            PM---|            PM
|  E     E     E     E     E     E     E     E
|-------------------------------------------------|
|-------------------------------------------------|
|-------------------------------------------------|
|-------------------------------------------------|
|--------5-----------------4----------------------|
|--2-----------2-----2-----------2-----5p====2----|
|
|  S  S  S  S  S  S  S  S  S  S  S  S  S  S  S  S
|-------------------------------------------------|
|-------------------------------------------------|
|-11----12p=6-----6-----6h11p=6-----6h11p=6-----6-|
|-----9--------9-----9-----------9-----------9----|
|-------------------------------------------------|
|-------------------------------------------------|


   S  S  S  S  S  S  S  S  S  S  S  S  S  S  S  S
|-------------------------------------------------|
|-14p10----10h14p10-14p10----10h14p10-14p10----10h|
|-------11----------------11----------------11----|
|-------------------------------------------------|
|-------------------------------------------------|
|-------------------------------------------------|
|
|        PM---|            PM---|            PM----
|  E     E     E     E     E     E     E     E
|-------------------------------------------------|
|-------------------------------------------------|
|-------------------------------------------------|
|-------------------------------------------------|
|--4-----------------5-----------------4----------|
|--------2-----2-----------2-----2-----------2----|
|
|  S  S  S  S  S  S  S  S  S  S  S  S  S  S  S  S
|-------------------------------------------------|
|-------------------------------------------------|
|-11p=6-----6h11p=6-11p=6-----6h11p=6-11p=6-----6h|
|--------9-----------------9-----------------9----|
|-------------------------------------------------|
|-------------------------------------------------|


                          E5
   S  S  S  S  S  S  S  S  S  S  S  S  S  S  S  S
|--------------------------------------------------||
|-14----15p10----10----10h14p10----10h14p10----10-o||
|----11-------11----11----------11----------11-----||
|--------------------------------------------------||
|-------------------------------------------------o||
|--------------------------------------------------||
|
|-|            PM---|
|  E     E     E     E     Q           Q
|--------------------------------------------------||
|-------------------------------------------------o||
|--------------------------------------------------||
|--------------------------------------------------||
|--------5-----------------2-----------2----------o||
|--2-----------2-----2-----0-----------0-----------||
|
|  S  S  S  S  S  S  S  S  S  S  S  S  S  S  S  S
|--------------------------------------------------||
|-------------------------------------------------o||
|-11----12p=6-----6-----6h11p=6-----6h11p=6-----6--||
|-----9--------9-----9-----------9-----------9-----||
|-------------------------------------------------o||
|--------------------------------------------------||


  N.C.
                                                   |----3----|
   E      +E   +H.                     +Q     Q    Q    Q    Q
|-18b19==(18)-(18)------------------|-(18)---18---18---18---18---|
|-----------------------------------|----------------------------|
|-----------------------------------|----------------------------|
|-----------------------------------|----------------------------|
|-----------------------------------|----------------------------|
|-----------------------------------|----------------------------|
|
|          PM-|      PM|        PM----|       PM|    PM
|  E       E    E  E E E   E    E       E  E  E E  E E    E    E
|-----------------------------------|----------------------------|
|-----------------------------------|----------------------------|
|-----------------------------------|----------------------------|
|-----------------------------------|----------------------------|
|--4---------------5-------4--------|------5-------4-------------|
|----------2----2----2-2--------2---|---2-----2-2----2----5p===2-|
|
|  ~~~~~~~~~~~~~~~~~~~~~~~~~~~
|  H
Добавлено: 29.05.2012
Другие материалы по этой песне:

Страница создана 09.03.2012
http://primanota.ru/death/painkiller-chords.htm
Привет, Гость.
Предлагаем пройти революционный курс по гитаре.
Подарок от PrimaNota.Ru, забирай!