PrimaNota.ru - самый крупный в мире бесплатный архив песенных текстов, аккордов, табулатур и нот


Death - Destiny - аккорды и текст, таба, видео

Регистрация Запомнить меня
Войти через:  Facebook Google Twitter Vk Yandex Mail.ru

Death - Destiny - аккорды и текст, таба, видео

Печатать
Просмотров: 158
Destiny
Death
		   DESTiNY >
                              iNTRO BG RHYTHM  >


Off of _Individual Thought Patterns_, here's the main tab to the intro to
track #08, Destiny. It's truly a bitch to play, unless you put a capo on your
second fret. I'm not sure about the tuning, I think it's normal, but if not
then it's Dropped-D

E-|----------3-----------------3--------------|
B-|-------7-----7-----------7-----7-----------|
G-|----4-----------4-----4-----------4-----4--|
D-|-2-----------------2-----------------2-----|
A-|-------------------------------------------|
E-|-------------------------------------------|

E-|----------3-----------------3--------------|
B-|-------3-----3-----------3-----3-----------|
G-|----5-----------5-----5-----------5-----5--| after this point, loop back up.
D-|-3-----------------3-----------------3-----|
A-|-------------------------------------------|
E-|-------------------------------------------|

If there's anyone else out there who can tab out ANY Death AT ALL, *please*
do so, and send it up. Likewise with any Carcass you might be able to do.



Author/Artist: DEATH
Title: DESTINY - intro
Album: Individual Thought Patterns
Transcribed by: A Stewart
Email: PHA95ADS@Sheffield.ac.uk

-----2-3-2-------2-3-2-------------3-----------3------------------------------
---------------------------------3---3-------3---3----------------------------
---4-------4---4-------4---4---5-------5---5-------5---5----------------------
-2-----------2-----------2---3-----------3-----------3------------------------
------------------------------------------------------------------------------
------------------------------------------------------------------------------
 Guitar 1                                                  REPEAT

----7-7-----5-7-8-5--------------------------8--------------------------------
-5----------------------6--6-------/10---10-----10----------------------------
--------------------5---------------------------------------------------------
------------------------------------------------------------------------------
------------------------------------------------------------------------------
------------------------------------------------------------------------------
 Guitar 2

----7h8------5-11-12------14--10--12-------/5--3--5---------------------------
-10-----10-5--------------------------12-------------3/5----------------------
----------------------------------------------------------5-------------------
------------------------------------------------------------------------------
------------------------------------------------------------------------------
------------------------------------------------------------------------------
 Guitar 2

-7-----7-----------------------------------------------/8--8------------------
---8-5-----/10p8---7b8r7----------/6---6-----/10--10--------------------------
--------------------------4--5------------------------------------------------
------------------------------------------------------------------------------
------------------------------------------------------------------------------
------------------------------------------------------------------------------
 Guitar 2     
Добавлено: 06.07.2013
Другие материалы по этой песне:

Страница создана 06.06.2012
http://primanota.ru/death/destiny-chords.htm
Привет, Гость.
Предлагаем пройти революционный курс по гитаре.
Подарок от PrimaNota.Ru, забирай!