PrimaNota.ru - самый крупный в мире бесплатный архив песенных текстов, аккордов, табулатур и нот


Death - Bite The Pain - текст песни, таба, бас-таба, видео

Регистрация Запомнить меня
Войти через:  Facebook Google Twitter Vk Yandex Mail.ru

Death - Bite The Pain - текст песни, таба, бас-таба, видео

Печатать
Просмотров: 150
As recorded by Death
(From the 1998 Album THE SOUND OF PERSEVERANCE)

Transcribed by livingzombie
	

Words and Music by Chuck Schuldiner

Gtr I (D G C F A D) - 'Chuck Schuldiner'
Gtr II (D G C F A D) - 'Shannon Hamm'
Gtr III (D G C F A D) - 'Solo Fills'
Gtr IV (D G C F A D) - 'Pick Slide I'
Gtr V (D G C F A D) - 'Pick Slide II'

   Intro
    Q=116
    D5                                 C5
   4/4
    Gtr I
    W                Q   H.            W
||-----------------|-----------------|----------------|
||o----------------|-----------------|----------------|
||--7--------------|-7---------------|-5--------------|
||--7--------------|-7---------------|-5--------------|
||o-5--------------|-5---------------|-3--------------|
||-----------------|-----------------|----------------|
|
|   Gtr II
|         ~~~~~~                  ~          ~~~~~~
|   E E E E +H       E E E  E E E Q    E E E E +H
||-----------------|-----------------|----------------|
||o----------------|-----------------|----------------|
||-----------------|--------------7--|----------------|
||--------7-(7)----|--------7-7s8----|-------7-(7)----|
||o-5h7-8----------|-5h7-8-----------|-5h7-8----------|
||-----------------|-----------------|----------------|


  1.                 2.
  A5                  A5
  Q   H.              Q    H.
|------------------||------------------------------------------||
|-----------------o||------------------------------------------||
|------------------||------------------------------------------||
|-7----------------||-7----------------------------------------||
|-7---------------o||-7----------------------------------------||
|-5----------------||-5----------------------------------------||
|
|                                   T      T      T      T
|                                   |----6-----|  |----6-----|
| E E E  E E E Q      E E  E  S  S  S S S  S S S  S S S  S S S
|------------------||------------------------------------------||
|-----------------o||--------------10p6p3-11p6p3-13p6p3-11p6p3-||
|----------7s5s7---||-7h9-10--9h10-----------------------------||
|--------7---------||------------------------------------------||
|-5h7-8----5s3s5--o||-5h7--8--7h=8-----------------------------||
|------------------||------------------------------------------||


   Verse
    D5               Bb5              C5               G5
    W                W                W                W
||-----------------|----------------|----------------|------------------||
||o----------------|----------------|----------------|-----------------o||
||--7--------------|----------------|-5--------------|------------------||
||--7--------------|-8--------------|-5--------------|-5----------------||
||o-5--------------|-8--------------|-3--------------|-5---------------o||
||-----------------|-6--------------|----------------|-3----------------||
|
|         ~~~~~~                 ~          ~~~~~~                 ~
|   E E E E +H       E E E E E E Q    E E E E +H       E E E E E E Q
||-----------------|----------------|----------------|------------------||
||o----------------|----------------|----------------|-----------------o||
||-----------------|-------------7--|----------------|-------------7----||
||--------7-(7)----|-------7-7s8----|-------7-(7)----|-------7-7s8------||
||o-5h7-8----------|-5h7-8----------|-5h7-8----------|-5h7-8-----------o||
||-----------------|----------------|----------------|------------------||


                                                                     Q=174
  D5               Bb5              C5                     E5/B Eb5/Bb
  W                W                H.           +E  S S   H    H      W
|----------------|----------------|----------------------|-----------|------||
|----------------|----------------|----------------------|-----------|------||
|-7--------------|----------------|-5------------(5)-x-x-|-9----8----|------||
|-7--------------|-8--------------|-5------------(5)-x-x-|-9----8----|------||
|-5--------------|-8--------------|-3------------(3)-x-x-|-7----6----|------||
|----------------|-6--------------|----------------------|-7----6----|------||
|
|       ~~~~~~                 ~          ~~~~~~
| E E E E +H       E E E E E E Q    E E E E +Q.      S S   H    H      W
|----------------|----------------|----------------------|-----------|------||
|----------------|----------------|----------------------|-----------|------||
|----------------|-------------7--|------------------x-x-|-9----8----|------||
|-------7-(7)----|-------7-7s8----|-------7-(7)------x-x-|-9----8----|------||
|-5h7-8----------|-5h7-8----------|-5h7-8------------x-x-|-7----6----|------||
|----------------|----------------|----------------------|-7----6----|------||


   Pre-Verse
    E5                            E5        F5     D5
    Gtrs I, II
    PM|   PM--------------------|   PM----|    PM|
    E E E E S S S S S S S S   S S E S S S S  E S S Q
||--------------------------|-------------------------|
||o-------------------------|-------------------------|
||--------------------------|-------------------------|
||--------------------------|-----9---------10-----7--|
||o-2-2---------------------|-----7----------8-----5--|
||--0-0---0-0-0-0-0-0-0-0-0-|-0-0---0-0-0-0----0-0----|


  E5                            E5        F5     G5
  PM|   PM--------------------|   PM----|    PM|
  E E E E S S S S S S S S   S S E S S S S  E S S  Q
|-------------------------|-----------------------------||
|-------------------------|----------------------------o||
|-------------------------|-----------------------------||
|-------------------------|-----9---------10-----12-----||
|-2-2---------------------|-----7----------8-----10----o||
|-0-0---0-0-0-0-0-0-0-0-0-|-0-0---0-0-0-0----0-0--------||


   Verse
    $
    E5                            E5        F5     D5
    PM|   PM--------------------|   PM----|    PM|
    E E E E S S S S S S S S   S S E S S S S  E S S Q
||--------------------------|-------------------------|
||o-------------------------|-------------------------|
||--------------------------|-------------------------|
||--------------------------|-----9---------10-----7--|
||o-2-2---------------------|-----7----------8-----5--|
||--0-0---0-0-0-0-0-0-0-0-0-|-0-0---0-0-0-0----0-0----|


  E5                            E5        F5     G5
  PM|   PM--------------------|   PM----|    PM|
  E E E E S S S S S S S S   S S E S S S S  E S S  Q
|-------------------------|-----------------------------||
|-------------------------|----------------------------o||
|-------------------------|-----------------------------||
|-------------------------|-----9---------10-----12-----||
|-2-2---------------------|-----7----------8-----10----o||
|-0-0---0-0-0-0-0-0-0-0-0-|-0-0---0-0-0-0----0-0--------||


   Bridge
    N.C.                            G5
    PM----------------------------|
    E E E E E E S S S S   E E E E E Q.
||----------------------|----------------|
||o---------------------|----------------|
||----------------------|----------------|
||------6---------------|-----6-----5----|
||o---4---4-------------|---4---4---5----|
||--2-------2-2-2-2-2-2-|-2-------2-3----|


  N.C.                            G5
  PM----------------------------|
  E E E E E E S S S S   E E E E E Q.     4x
|---------------------|------------------||
|---------------------|-----------------o||
|---------------------|------------------||
|-----6---------------|-----6-----5------||
|---4---4-------------|---4---4---5-----o||
|-2-------2-2-2-2-2-2-|-2-------2-3------||


  N.C.
  Gtr I
                                          ~~
   E  E  E  E  q   E  E    E  q  E  E  E  Q
|-----------------------|--------------------|
|-----------------------|-----------------5--|
|-----------------------|-----5-----6--8-----|
|-----6-----4------4--6-|--7-----------------|
|--4-----7-----6--------|--------------------|
|-----------------------|--------------------|
|
| Gtr II
|                                         ~~
|  E  E  E  E  q   E  E    E  q  E  E  E  Q
|-----------------------|--------------------|
|-----------------------|----13----14-16-17--|
|----13----11-----11-13-|-14-----------------|
|-11----14----13--------|--------------------|
|-----------------------|--------------------|
|-----------------------|--------------------|


                                 To Coda
                                         ~~~
   E  E  E  q  E  E  E    E  q  E  E  E  Q
|--4--------------5----|----------------------|
|-----7--5--4----------|--4-------------------|
|--------------------6-|-----6-----5--6--5\---|
|----------------------|----------------------|
|----------------------|----------------------|
|----------------------|----------------------|
|
|                                        ~~~
|  E  E  E  q  E  E  E    E  q  E  E  E  Q
|-16-------------17----|----------------------|
|----19-17-16----------|-16-------------------|
|-------------------18-|----18----17-18-17\---|
|----------------------|----------------------|
|----------------------|----------------------|
|----------------------|----------------------|


        ~~           ~~                    ~         T
  E E E Q.   E E   E Q.   E E E E   E  E E Q   S  S  S  S  S  S
|----------------|----------------|-----------14h15-19p15p14h15-|
|----------------|----------------|-----------------------------|
|----------------|----------------|-----------------------------|
|-----7----------|-6------5-------|------7----------------------|
|---5---5------4-|---4------3---3-|----5---5--------------------|
|-3----------2---|------------1---|-3---------------------------|
|
|                                                    T
| W                W                Q.     Q   S  S  S  S  S  S
|----------------|----------------|-----------19h20-24p20p19h20-|
|----------------|----------------|-----------------------------|
|----------------|----------------|-----------------------------|
|----------------|----------------|-----------------------------|
|----------------|----------------|-----------------------------|
|----------------|----------------|-----------------------------|


   T        T        T        T
   E. T  T  E. T  T  E. T  T  E. T  T
|-19p14h15-19p14h15-19p14h15-19p14h15--|
|--------------------------------------|
|--------------------------------------|
|--------------------------------------|
|--------------------------------------|
|--------------------------------------|
|
|  T        T        T        T
|  E. T  T  E. T  T  E. T  T  E. T  T
|-24p19h20-24p19h20-24p19h20-24p19h20--|
|--------------------------------------|
|--------------------------------------|
|--------------------------------------|
|--------------------------------------|
|--------------------------------------|


  Gtrs I, II
        ~~           ~~                   ~~           ~~
  E E E Q.   E E   E Q.   E E E E   E E E Q.   E E   E Q.   E E E E
|----------------|----------------|----------------|-----------------||
|----------------|----------------|----------------|-----------------||
|----------------|----------------|----------------|-----------------||
|-----7----------|-6------5-------|-----7----------|-6------5--------||
|---5---5------4-|---4------3---3-|---5---5------4-|---4------3------||
|-3----------2---|------------1---|-3----------2---|------------1----||


 Chorus
  Gtr I
        ~~           ~~                     ~~             ~~
  E E E Q.   E E   E Q.   E E E E   E E  E  Q.   E E    E  Q.   E E E E
|----------------|----------------|------------------|-------------------|
|----------------|----------------|------------------|-------------------|
|----------------|----------------|------------------|-------------------|
|-----7----------|-6------5-------|------7-----------|--6-------5--------|
|---5---5------4-|---4------3---3-|---5-----5------4-|-----4------3------|
|-3----------2---|------------1---|-3------------2---|--------------1----|
|
| Gtr II
|       ~~   PM      ~~               ~~~~~~       ~~~~~~~~
| E E E Q.   E E   E Q.   E E E E   E E +H       E E   +H       E E E E
|----------------|----------------|------------------|--------------3----|
|----------------|--------8-------|-5----------------|-------------------|
|-----9----------|----------5---5-|---2-(2)------4---|------------5------|
|---7---7--------|-9----------3---|----------------2-|-(2)------3--------|
|-5------------7-|---7------------|------------------|-------------------|
|------------5---|----------------|------------------|-------------------|


  Gtrs I, II
        ~~           ~~                   ~~           ~~
  E E E Q.   E E   E Q.   E E E E   E E E Q.   E E   E Q.   E E E E
|----------------|----------------|----------------|-----------------|
|----------------|----------------|----------------|-----------------|
|----------------|----------------|----------------|-----------------|
|-----7----------|-6------5-------|-----7----------|-6------5--------|
|---5---5------4-|---4------3---3-|---5---5------4-|---4------3------|
|-3----------2---|------------1---|-3----------2---|------------1----|


  Gtr I
                                          ~~
   E  E  E  E  q   E  E    E  q  E  E  E  Q
|-----------------------|--------------------|
|-----------------------|-----------------5--|
|-----------------------|-----5-----6--8-----|
|-----6-----4------4--6-|--7-----------------|
|--4-----7-----6--------|--------------------|
|-----------------------|--------------------|
|
| Gtr II
|                                         ~~
|  E  E  E  E  q   E  E    E  q  E  E  E  Q
|-----------------------|--------------------|
|-----------------------|----13----14-16-17--|
|----13----11-----11-13-|-14-----------------|
|-11----14----13--------|--------------------|
|-----------------------|--------------------|
|-----------------------|--------------------|


                                         ~~~
   E  E  E  q  E  E  E    E  q  E  E  E  Q
|--4--------------5----|----------------------||
|-----7--5--4----------|--4-------------------||
|--------------------6-|-----6-----5--6--5\---||
|----------------------|----------------------||
|----------------------|----------------------||
|----------------------|----------------------||
|
|                                        ~~~
|  E  E  E  q  E  E  E    E  q  E  E  E  Q
|-16-------------17----|----------------------||
|----19-17-16----------|-16-------------------||
|-------------------18-|----18----17-18-17\---||
|----------------------|----------------------||
|----------------------|----------------------||
|----------------------|----------------------||


 Bridge
  Q=154
  Gtrs I, II
  E E H.        E E H.        E E H.        E E H.
|-------------|-------------|-------------|-----------|
|-------------|-------------|-------------|-----------|
|-------------|-------------|-------------|-----------|
|-------------|-------------|-------------|-----------|
|---6---------|-7-----------|---6---------|-7---------|
|-4-----------|---4---------|-0-----------|---3-------|


  PM-----------------------------------------
  E E E E S S S S E E   E E E E S S S S E E
|---------------------|---------------------|
|---------------------|---------------------|
|---------------------|---------------------|
|---------------------|---------------------|
|---6-----------------|-7-------------------|
|-4---4-4-4-4-4-4-4-4-|---4-4-4-4-4-4-4-4-4-|


 -----------------------------------------|
  E E E E S S S S E E   E E E E S S S S E E
|---------------------|-----------------------||
|---------------------|-----------------------||
|---------------------|-----------------------||
|---------------------|-----------------------||
|---6-----------------|-7---------------------||
|-0---0-0-0-0-0-0-0-0-|---3-3-3-3-3-3-3-3-3---||


 Solo (Hamm)
  Gtr I
     PM--------|   PM--------|        PM--------|      PM--------------|
   E S S S S S S E S S S S S S     E  S S S S S S   E  S    S S S    S S
|------------------------------|------------------------------------------|
|------------------------------|------------------------------------------|
|------------------------------|------------------------------------------|
|------------------------------|------------------------------------------|
|--6-------------7-------------|---6----------------7---------------------|
|----4-4-4-4-4-4---4-4-4-4-4-4-|------0-0-0-0-0-0------0----0-0-0----0-0--|
|
| Gtr II
|  ~~~~~~~~~~~~~~~~~~~~~~~~~~~~~~~~~~~~~~~~~~~~~~~~~~~~
|                                                   |------3-------|
|  W                              +H               +Q     q        q
|------------------------------|------------------------------------------|
|------------------------------|------------------------------------------|
|--8---------------------------|--(8)--------------(8)----6--------8------|
|------------------------------|------------------------------------------|
|------------------------------|------------------------------------------|
|------------------------------|------------------------------------------|
|
| Gtr III
|  ~~~~~~~~~~~~~~~~~~~~~~~~~~~~~~~~~~~~~~~~~~~~~~~~~~~~
|                                                   |------3-------|
|  W                              +H               +Q     q        q
|-15---------------------------|-(15)-------------(15)--------------------|
|------------------------------|-------------------------14-------16------|
|------------------------------|------------------------------------------|
|------------------------------|------------------------------------------|
|------------------------------|------------------------------------------|
|------------------------------|------------------------------------------|


      PM-----------|   PM--------|        PM--------------|   PM-------------|
   E  S S   S  S S S E S S S S S S     E  S     S S S   S S E S    S S S   S S
|----------------------------------|-------------------------------------------|
|----------------------------------|-------------------------------------------|
|----------------------------------|-------------------------------------------|
|----------------------------------|-------------------------------------------|
|--6-----------------7-------------|---6--------------------7------------------|
|-----3-3---3--3-3-3---3-3-3-3-3-3-|------5-----5-5-5---5-5---5----5-5-5---5-5-|
|
|           ~~~~~~~~~~~~~~~~~~~~~~~~~~~~~~
|                                      |------3-------|     |-----3------|
|  E  E     H.                        +Q      Q       Q     Q    Q       Q
|----------------------------------|-------------------------------------------|
|----------------------------------|-------------------------------------------|
|--8s=9-----9----------------------|--(9)---/11-------9-----8------------9-----|
|----------------------------------|----------------------------11-------------|
|----------------------------------|---------/9-------7-----6------------7-----|
|----------------------------------|-----------------------------9-------------|
|
|           ~~~~~~~~~~~~~~~~~~~~~~~~~~~~~~
|                                      |--3---|
|  E  E     H.                        +Q      H             H
|----------------------------------|-------------------------------------------|
|-16s17---[17]---------------------|-(17)--------------------------------------|
|----------------------------------|-------------------------------------------|
|----------------------------------|-------------------------------------------|
|----------------------------------|-------------------------------------------|
|----------------------------------|-------------------------------------------|


     PM------------|    PM--------|       PM--------|     PM--------|
   E S S   S  S  S S  E S S S S S S    E  S S S S S S  E  S S S S S S
|-----------------------------------|---------------------------------|
|-----------------------------------|---------------------------------|
|-----------------------------------|---------------------------------|
|-----------------------------------|---------------------------------|
|--6------------------7-------------|--6---------------7--------------|
|----4-4---4--4--4-4----4-4-4-4-4-4-|-----0-0-0-0-0-0-----0-0-0-0-0-0-|
|
|  ~~~~~~~~~~~~       ~~~~~~~~~~~~~~~~~~~~~~~~~~~~~~~~~~~~
|  Q      +E     E    H                H               H
|-12-----(12)s==11---11-------------|---------------------------------|
|-----------------------------------|---------------------------------|
|--9------(9)s===8----8-------------|-[8]-------------[8]-------------|
|-----------------------------------|---------------------------------|
|-----------------------------------|---------------------------------|
|-----------------------------------|---------------------------------|
|
|  ~~~~~~~~~~~~       ~~
|  Q      +E     E    H                W
|-17-----(17)s==16---16-------------|---------------------------------|
|-----------------------------------|---------------------------------|
|-----------------------------------|---------------------------------|
|-----------------------------------|---------------------------------|
|-----------------------------------|---------------------------------|
|-----------------------------------|---------------------------------|


        PM------------------|         PM------------------|
  E     S   S   S   S   S   S   E     S   S   S   S   S   S
|-------------------------------------------------------------|
|-------------------------------------------------------------|
|-------------------------------------------------------------|
|-------------------------------------------------------------|
|-6-----------------------------7-----------------------------|
|-------3---3---3---3---3---3---------3---3---3---3---3---3---|
|
| |-----6-----| |------6------| |-----6-----| |------6------|
| S S S S S   S S S   S S S   S S S S S S   S S S   S S S   S
|-------------------------------------------------------------|
|-------------------------------------------------------------|
|-8-9-8-6-----6---------6-----6-8-9-8-6-----6---------6-----6-|
|---------9-----9-7---9---9-------------9-----9-7---9---9-----|
|-------------------------------------------------------------|
|-------------------------------------------------------------|


        PM------------------|         PM-----------------------|
  E     S   S   S   S   S   S   E     S   S    S    S     S    S
|--------------------------------------------------------------------|
|--------------------------------------------------------------------|
|--------------------------------------------------------------------|
|--------------------------------------------------------------------|
|-6-----------------------------7------------------------------------|
|-------5---5---5---5---5---5---------5---5----5----5-----5----5-----|
|
| |-----6-----| |------6------| |-----6-----|  |--------6---------|
| S S S S S   S S S   S S S   S S S S S S   S  S  S    S  S  S    S
|--------------------------------------------------------------------|
|-----------------------------------------------------10-12-14---16--|
|-8-9-8-6-----6---------6-----6-8-9-8-6-----6-11-13------------------|
|---------9-----9-7---9---9-------------9----------------------------|
|--------------------------------------------------------------------|
|--------------------------------------------------------------------|


           PM-----------------------|             PM-------------------------|
   E       S    S    S    S    S    S    E        S    S     S    S     S    S
|---------------------------------------------------------------------------------|
|---------------------------------------------------------------------------------|
|---------------------------------------------------------------------------------|
|---------------------------------------------------------------------------------|
|--6-------------------------------------7----------------------------------------|
|----------4----4----4----4----4----4-------------4----4-----4----4-----4----4----|
|
|  |-------6-------| |-------6--------|  |-------6--------|  |--------6---------|
|  S  S  S S  S    S S  S    S S  S   S  S  S  S  S  S    S  S  S    S  S  S    S
|-11-12-11-9-------------------9------9-13-14-13-11--------------------11------11-|
|------------12---11-9-11---12---12-----------------14---13-11-13---14----14------|
|---------------------------------------------------------------------------------|
|---------------------------------------------------------------------------------|
|---------------------------------------------------------------------------------|
|---------------------------------------------------------------------------------|


            PM-------------------------|              PM-------------------------|
   E        S    S     S    S     S    S     E        S    S     S    S     S    S
|--------------------------------------------------------------------------------------|
|--------------------------------------------------------------------------------------|
|--------------------------------------------------------------------------------------|
|--------------------------------------------------------------------------------------|
|--6-----------------------------------------7-----------------------------------------|
|-----------0----0-----0----0-----0----0--------------0----0-----0----0-----0----0-----|
|
|  |-------6--------|  |--------6---------|  |-------6--------|  |--------6---------|
|  S  S  S  S  S    S  S  S    S  S  S    S  S  S  S  S  S    S  S  S    S  S  S    S
|-14-15-14-12--------------------12------12-16-17-16-14--------------------14------14--|
|-------------15---14-12-14---15----15------------------17---16-14-16---17----17-------|
|--------------------------------------------------------------------------------------|
|--------------------------------------------------------------------------------------|
|--------------------------------------------------------------------------------------|
|--------------------------------------------------------------------------------------|


            PM-------------------------|              PM-------------------------|
   E        S    S     S    S     S    S     E        S    S     S    S     S    S
|-------------------------------------------------------------------------------------|
|-------------------------------------------------------------------------------------|
|-------------------------------------------------------------------------------------|
|-------------------------------------------------------------------------------------|
|--6-----------------------------------------7----------------------------------------|
|-----------3----3-----3----3-----3----3--------------3----3-----3----3-----3----3----|
|
|  |-------6--------|  |--------6---------|  |-------6--------|  |--------6---------|
|  S  S  S  S  S    S  S  S    S  S  S    S  S  S  S  S  S    S  S  S    S  S  S    S
|-17-18-17-15--------------------15------15-19-20-19-17--------------------17------17-|
|-------------18---17-15-17---18----18------------------20---19-17-19---20----20------|
|-------------------------------------------------------------------------------------|
|-------------------------------------------------------------------------------------|
|-------------------------------------------------------------------------------------|
|-------------------------------------------------------------------------------------|


            PM-------------------------|       PM------------------|
   E        S    S     S    S     S    S     E S S  S    S   S     S
|-----------------------------------------------------------------------|
|-----------------------------------------------------------------------|
|-----------------------------------------------------------------------|
|-----------------------------------------------------------------------|
|--6-----------------------------------------7--------------------------|
|-----------5----5-----5----5-----5----5-------5-5--5----5---5-----5----|
|
|                                            ~~
|  |-------6--------|  |--------6---------|
|  S  S  S  S  S    S  S  S    S  S  S    S  Q      E       +E
|-22-23-22-20--------------------20------20-24-----24b25r==(24)b25r=====|
|-------------23---22-20-22---23----23----------------------------------|
|-----------------------------------------------------------------------|
|-----------------------------------------------------------------------|
|-----------------------------------------------------------------------|
|-----------------------------------------------------------------------|


            PM----------------|        PM-----------|
    E       S     S   S   S S S  E     S  S  S S  S  S
|------------------------------------------------------|
|------------------------------------------------------|
|------------------------------------------------------|
|------------------------------------------------------|
|---6----------------------------7---------------------|
|-----------4-----4---4---4-4-4--------4--4--4-4--4--4-|
|
|  +E      +E        +E     E    S  S  S  S  e    S  S
|-(24)b25r(24)b25r==(24)\-------20h24p20------------20-|
|----------------------------------------22------22----|
|-------------------------------------------21---------|
|------------------------------------------------------|
|------------------------------------------------------|
|------------------------------------------------------|


       PM------------|        PM------------|
    E  S S S S   S   S  E     S  S  S  S  S  S
|-----------------------------------------------|
|-----------------------------------------------|
|-----------------------------------------------|
|-----------------------------------------------|
|---6-------------------7-----------------------|
|------0-0-0-0---0---0--------0--0--0--0--0--0--|
|
|   ~~~~
|   Q.          +E      S  S  S  S  S  S  S  S
|--22----------(22)\---15h19p15-----------------|
|-(20)---------(20)\------------17----17--------|
|----------------------------------16----16s14--|
|-----------------------------------------------|
|-----------------------------------------------|
|-----------------------------------------------|


      PM------------|         PM------------|
   E  S S S S   S   S   E     S  S  S  S  S  S
|----------------------------------------------|
|----------------------------------------------|
|----------------------------------------------|
|----------------------------------------------|
|--6--------------------7----------------------|
|-----3-3-3-3---3---3---------3--3--3--3--3--3-|
|
|  ~~~
|  Q.          +E       S  S  S  S  S  S  S  S
|---------------------(22)---------------------|
|-13----------(13)\----13h17p13----------------|
|-------------------------------14----14-------|
|----------------------------------14----15-14-|
|----------------------------------------------|
|----------------------------------------------|


     PM--------|       PM-------------|
   E S S S S S S     E S S   S   S  S  S    W
|----------------------------------------|-------------||
|----------------------------------------|-------------||
|----------------------------------------|-------------||
|----------------------------------------|-------------||
|--6-----------------7-------------------|-------------||
|----5-5-5-5-5-5-------5-5---5---5--5--5-|-------------||
|
|  ~~                ~~~~~~~~~~~
|  H              a  Q      +S   S  S  S    S E. H.
|----------------19h20-----(20)-19-17-15-|-------------||
|----------------------------------------|-------------||
|----------------------------------------|-12----------||
|----------------------------------------|-------------||
|-17-------------------------------------|-------------||
|----------------------------------------|-------------||


 Solo (Schuldiner)
                      Eb5      N.C.               Ab5   Eb5  E5
                                                          ~~~~
   W                            +H                 E     +Q.
|-11-------------------------|-(11)---------------11----(11)----|
|-14b16----------------------|-(14)---------------14b16-(14)----|
|----------------------------|----------------------------------|
|----------------------------|----------------------------------|
|----------------------------|----------------------------------|
|----------------------------|----------------------------------|
|
|  S    S S S S S S S E Q.       S  S S S S S S S  E      E  Q
|----------------------------|----------------------------------|
|----------------------------|----------------------------------|
|---------------------8------|---------------------8------8--9--|
|---------------------8------|---------------------6------8--9--|
|--6----6-6-6-6-6-6-6-6------|---6--6-6-6-6-6-6-6---------6--7--|
|----------------------------|----------------------------------|


  N.C.                      Eb5          N.C.               Ab5   EbE5
                                                             ~~~~~
   Q           +S   S  S  S  H             H                 H
|-12----------(12)-12-15-12-11b12------|-(11)---------------12---------|
|-15b17-------(15)----------14b15------|---x----------------15b17------|
|--------------------------------------|-------------------------------|
|--------------------------------------|-------------------------------|
|--------------------------------------|-------------------------------|
|--------------------------------------|-------------------------------|
|
|  S    S S S   S   S  S  S  E    Q.       S  S S S S S S S  E    E Q
|--------------------------------------|-------------------------------|
|--------------------------------------|-------------------------------|
|----------------------------8---------|---------------------8----8-9--|
|----------------------------8---------|---------------------6----8-9--|
|--6----6-6-6---6---6--6--6--6---------|---6--6-6-6-6-6-6-6-------6-7--|
|--------------------------------------|-------------------------------|


  N.C.                           Eb5
                                   ~~~~
  E     S    S    S    S    E      Q.       S    S
|-----(16)-(15)-(16)-(15)-----------------(16)-(15)-|
|-------------------------(17)---(16)---------------|
|------13---12---13---12-------------------13---12--|
|--------------------------14----[13]---------------|
|---------------------------------------------------|
|---------------------------------------------------|
|
| S S   S    S    S    S    S  S   E  Q.
|---------------------------------------------------|
|---------------------------------------------------|
|----------------------------------8----------------|
|----------------------------------8----------------|
|-6-6---6----6----6----6----6--6---6----------------|
|---------------------------------------------------|


  N.C.                           Ab5  Eb5  E5
                                        ~~~~~~~~
    S    S    E      E      E      E    E   +Q
|-(16)-(15)---------------------------(14)-(14)--|
|-----------(17)---(16)---(17)---(16)------------|
|--13---12-----------------------------11--(11)--|
|------------14-----13-----14-----13-------------|
|------------------------------------------------|
|------------------------------------------------|
|
|   S    S    S  S   S  S   S  S   E    E    Q
|------------------------------------------------|
|------------------------------------------------|
|----------------------------------8----8----9---|
|----------------------------------6----8----9---|
|---6----6----6--6---6--6---6--6--------6----7---|
|------------------------------------------------|


  N.C.                 Eb5         A5          F5
                          T    T      T                   ~~~~
  E    S  S  S  S  E   E  E E  E   E  E E   E    E   E    Q
|-----16-15-16-15----------------|--------(12)-(11)s(9)-(11)--|
|-----------------17-------------|----------------------------|
|-----13-12-13-12------8-21p8-16p|=8-15p8h==9----8s==6----8---|
|-----------------14-------------|----------------------------|
|--------------------------------|----------------------------|
|--------------------------------|----------------------------|
|
| S S  S  S  S  S  S S E  Q.       H             H
|--------------------------------|----------------------------|
|--------------------------------|----------------------------|
|----------------------8---------|-9------------10------------|
|----------------------8---------|-7------------10------------|
|-6-6--6--6--6--6--6-6-6---------|---------------8------------|
|--------------------------------|----------------------------|


  N.C.              Eb5                   N.C.             Ab5Eb5  E5
   ~~~                                     ~~
                             |--3--|                        |----3----|
  +H                +E   E   S  S  S  E    H                Q    Q    Q
|---------------------------11-11-12-12-|-12---------------12---11------|
|---------------------------------------|----------------------------14-|
|-(8)---------------(8)\-8/-------------|-------------------------------|
|---------------------------------------|-------------------------------|
|---------------------------------------|-------------------------------|
|---------------------------------------|-------------------------------|
|
|  S  S S S S S S S  E   Q.                S S S S S S S S  E E    Q
|---------------------------------------|-------------------------------|
|---------------------------------------|-------------------------------|
|--------------------8------------------|-------------------8-8----9----|
|--------------------8------------------|-------------------6-8----9----|
|--6--6-6-6-6-6-6-6--6------------------|--6-6-6-6-6-6-6-6----6----7----|
|---------------------------------------|-------------------------------|


  N.C.               Eb5
        ~~~              ~~~
   E    Q.            E  Q.
|--------------------16p15----|
|-14h==16---------------------|
|-----------------------------|
|-----------------------------|
|-----------------------------|
|-----------------------------|
|
|  S S  S  S S S S S  E  Q.
|-----------------------------|
|-----------------------------|
|---------------------8-------|
|---------------------8-------|
|--6-6--6--6-6-6-6-6--6-------|
|-----------------------------|


  N.C.                      Ab5      Eb5      E5
        ~~
                             |------6-------|  |------6-------|
   E    Q        T  T  T  T  S  S  S  S  S  S  S  S  S  S  S  S
|-19p==18-------------16-18-21-16-18-16----16-18-16-21-16----16--|
|---------------17-19-------------------19----------------19-----|
|----------------------------------------------------------------|
|----------------------------------------------------------------|
|----------------------------------------------------------------|
|----------------------------------------------------------------|
|
|  S S  S S S S  S     S     E        E        Q
|----------------------------------------------------------------|
|----------------------------------------------------------------|
|----------------------------8--------8--------9-----------------|
|----------------------------6--------8--------9-----------------|
|--6-6--6-6-6-6--6-----6--------------6--------7-----------------|
|----------------------------------------------------------------|


  N.C.                Eb5
                       ~~~~~
   H                   H
|-21b23---------------21b23------|
|---------------------21b23------|
|--------------------------------|
|--------------------------------|
|--------------------------------|
|--------------------------------|
|
|  S    S S S S S S S  E    Q.
|--------------------------------|
|--------------------------------|
|----------------------8---------|
|----------------------8---------|
|--6----6-6-6-6-6-6-6--6---------|
|--------------------------------|


  N.C.                    Ab5      Eb5      E5
                           |------6-------|  |------6-------|
   Q            +Q         S  S  S  S  S  S  S  S  S  S  S  S
|-21b23========(21)r======18-19-18-21-18-19-18----18----------|
|----------------------------------------------19----19-16----|
|----------------------------------------------------------18-|
|-------------------------------------------------------------|
|-------------------------------------------------------------|
|-------------------------------------------------------------|
|
|  S     S S S   S  S S S  E        E        Q
|-------------------------------------------------------------|
|-------------------------------------------------------------|
|--------------------------8--------8--------9----------------|
|--------------------------6--------8--------9----------------|
|--6-----6-6-6---6--6-6-6-----------6--------7----------------|
|-------------------------------------------------------------|


                                              Q
  N.C.                 Eb5         A5/E F5/C
   ~~                   ~~~
   Q        +E     E    Q.     E   H     H
|--------------------------------|------------|
|-16-------(16)s==20---20--------|------------|
|--------------------------------|-9----------|
|--------------------------------|-7----10----|
|--------------------------------|-7-----8----|
|--------------------------------|-------8----|
|
|  S S S S   S  S  S S  E  Q.      H     H
|--------------------------------|------------|
|--------------------------------|------------|
|-----------------------8--------|-9----------|
|-----------------------8--------|-7----10----|
|--6-6-6-6---6--6--6-6--6--------|-7-----8----|
|--------------------------------|-------8----|


 =174
  N.C.
  Gtr IV
  TPTPTPTPTPTPTPTPTPTPTPTPTPTPTPTPTPTPTPTPTPTPTPTPTPTPTPTPTPTPTPTP
  T T T T T T T T T T T T T T T T T T T T T T T T T T T T T T T T
|-----------------------------------------------------------------||
|-----------------------------------------------------------------||
|-----------------------------------------------------------------||
|-----------------------------------------------------------------||
|-----------------------------------------------------------------||
|-xsxsx-xsx-xsxsxsxsxsxsx-xsx-xsx-xsx-xsx-xsx-xsx-xsx-xsx-xsx-xsx-||
|
| Gtr V
| TPTPTPTPTPTPTPTPTPTPTPTPTPTPTPTPTPTPTPTPTPTPTPTPTPTPTPTPTPTPTPTP
| T T T T T T T T T T T T T T T T T T T T T T T T T T T T T T T T
|-----------------------------------------------------------------||
|-----------------------------------------------------------------||
|-----------------------------------------------------------------||
|-----------------------------------------------------------------||
|-----------------------------------------------------------------||
|-xsxsx-xsx-xsxsxsxsxsxsx-xsx-xsx-xsx-xsx-xsx-xsx-xsx-xsx-xsx-xsx-||


   Pre-Verse
    E5                            E5        F5     D5
    Gtrs I, II
    PM|   PM--------------------|   PM----|    PM|
    E E E E S S S S S S S S   S S E S S S S  E S S Q
||--------------------------|-------------------------|
||o-------------------------|-------------------------|
||--------------------------|-------------------------|
||--------------------------|-----9---------10-----7--|
||o-2-2---------------------|-----7----------8-----5--|
||--0-0---0-0-0-0-0-0-0-0-0-|-0-0---0-0-0-0----0-0----|


                                                D.S. al Coda
  E5                            E5        F5     G5
                                                        2/4
                                                            Gtrs IV, V
  PM|   PM--------------------|   PM----|    PM|            TP
  E E E E S S S S S S S S   S S E S S S S  E S S  Q      Q  Q
|-------------------------|---------------------------||----------||
|-------------------------|--------------------------o||----------||
|-------------------------|---------------------------||----------||
|-------------------------|-----9---------10-----12---||----------||
|-2-2---------------------|-----7----------8-----10--o||----------||
|-0-0---0-0-0-0-0-0-0-0-0-|-0-0---0-0-0-0----0-0------||----x\----||


 Bridge Cont.
  &
  N.C.
 4/4
  Gtr I                                        Gtr I
        ~~           ~~                   ~~   TP
  E E E Q.   E E   E Q.   E E E E   E E E Q.   E E
|----------------|----------------|----------------|
|----------------|----------------|----------------|
|----------------|----------------|----------------|
|-----7----------|-6------5-------|-----7----------|
|---5---5------4-|---4------3---3-|---5---5--------|
|-3----------2---|------------1---|-3----------x---|


 V
  TP  TP  TP  TPTPTPTPTPTPTPTPTPTPTPTPTPTPTPTP
  |----3----|
  E E E E E E T T T T T T T T T T T T T T T T
|------------------------------------------------|
|------------------------------------------------|
|------------------------------------------------|
|------------------------------------------------|
|------------------------------------------------|
|-x---x---x---xsxsxsxsxsxsxsxsxsxsxsxsxsxsxsx----|


  Gtrs I, II
        ~~           ~~                   ~~           ~~
  E E E Q.   E E   E Q.   E E E E   E E E Q.   E E   E Q.   E E E E
|----------------|----------------|----------------|-----------------||
|----------------|----------------|----------------|-----------------||
|----------------|----------------|----------------|-----------------||
|-----7----------|-6------5-------|-----7----------|-6------5--------||
|---5---5------4-|---4------3---3-|---5---5------4-|---4------3------||
|-3----------2---|------------1---|-3----------2---|------------1----||


 Chorus
  Gtr I
        ~~           ~~                     ~~             ~~
  E E E Q.   E E   E Q.   E E E E   E E  E  Q.   E E    E  Q.   E E E E
|----------------|----------------|------------------|-------------------|
|----------------|----------------|------------------|-------------------|
|----------------|----------------|------------------|-------------------|
|-----7----------|-6------5-------|------7-----------|--6-------5--------|
|---5---5------4-|---4------3---3-|---5-----5------4-|-----4------3------|
|-3----------2---|------------1---|-3------------2---|--------------1----|
|
| Gtr II
|       ~~   PM      ~~               ~~~~~~       ~~~~~~~~
| E E E Q.   E E   E Q.   E E E E   E E +H       E E   +H       E E E E
|----------------|----------------|------------------|--------------3----|
|----------------|--------8-------|-5----------------|-------------------|
|-----9----------|----------5---5-|---2-(2)------4---|------------5------|
|---7---7--------|-9----------3---|----------------2-|-(2)------3--------|
|-5------------7-|---7------------|------------------|-------------------|
|------------5---|----------------|------------------|-------------------|


  Gtrs I, II
        ~~           ~~                   ~~           ~~
  E E E Q.   E E   E Q.   E E E E   E E E Q.   E E   E Q.   E E E E
|----------------|----------------|----------------|-----------------|
|----------------|----------------|----------------|-----------------|
|----------------|----------------|----------------|-----------------|
|-----7----------|-6------5-------|-----7----------|-6------5--------|
|---5---5------4-|---4------3---3-|---5---5------4-|---4------3------|
|-3----------2---|------------1---|-3----------2---|------------1----|


  Gtr I
                                          ~~
   E  E  E  E  q   E  E    E  q  E  E  E  Q
|-----------------------|--------------------|
|-----------------------|-----------------5--|
|-----------------------|-----5-----6--8-----|
|-----6-----4------4--6-|--7-----------------|
|--4-----7-----6--------|--------------------|
|-----------------------|--------------------|
|
| Gtr II
|                                         ~~
|  E  E  E  E  q   E  E    E  q  E  E  E  Q
|-----------------------|--------------------|
|-----------------------|----13----14-16-17--|
|----13----11-----11-13-|-14-----------------|
|-11----14----13--------|--------------------|
|-----------------------|--------------------|
|-----------------------|--------------------|


                                          ~~~~
   E  E  E  q  E  E  E    E  q  E  E  E   Q
|--4--------------5----|-----------------------*|
|-----7--5--4----------|--4--------------------*|
|--------------------6-|-----6-----5--6--[5]---*|
|----------------------|-----------------------*|
|----------------------|-----------------------*|
|----------------------|-----------------------*|
|
|                                         ~~~~
|  E  E  E  q  E  E  E    E  q  E  E  E   Q
|-16-------------17----|-----------------------*|
|----19-17-16----------|-16--------------------*|
|-------------------18-|----18----17-18-[17]---*|
|----------------------|-----------------------*|
|----------------------|-----------------------*|
|----------------------|-----------------------*|



Duration Legend
---------------
W - whole; H - half; Q - quarter; E - 8th; S - 16th; T - 32nd; X - 64th; a - acciaccatura
+ - note tied to previous; . - note dotted; .. - note double dotted
Uncapitalized letters represent notes that are staccato (1/2 duration)
Irregular groupings are notated above the duration line
Duration letters will always appear directly above the note/fret number it represents the
duration for.  Duration letters with no fret number below them represent rests.  Multi-
bar rests are notated in the form Wxn, where n is the number of bars to rest for.  Low
melody durations appear below the staff

Tablature Legend
----------------
 h   - hammer-on
 p   - pull-off
 b   - bend
 pb  - pre-bend
 r   - bend release (if no number after the r, then release immediately)
 /\  - slide into or out of (from/to "nowhere")
 s   - legato slide
 S   - shift slide
 - natural harmonic
[n]  - artificial harmonic
n(n) - tapped harmonic
 ~   - vibrato
 tr  - trill
 T   - tap
 TP  - trem. picking
 PM  - palm muting
\n/  - tremolo bar dip; n = amount to dip
 \n  - tremolo bar down
 n/  - tremolo bar up
/n\  - tremolo bar inverted dip
 =   - hold bend; also acts as connecting device for hammers/pulls
 <> - volume swell (louder/softer)
 x   - on rhythm slash represents muted slash
 o   - on rhythm slash represents single note slash

Misc Legend
-----------
 |  - bar
||  - double bar
||o - repeat start
o|| - repeat end
*|  - double bar (ending)
 :  - bar (freetime)
 $  - Segno
 &  - Coda
Tempo markers -  = BPM(8/16=s8/s16), where s8 = swing 8ths, s16 = swing 16ths

Добавлено: 24.09.2013
Другие материалы по этой песне:

Страница создана 02.05.2012
http://primanota.ru/death/bite-the-pain-chords.htm
Привет, Гость.
Предлагаем пройти революционный курс по гитаре.
Подарок от PrimaNota.Ru, забирай!