PrimaNota.ru - самый крупный в мире бесплатный архив песенных текстов, аккордов, табулатур и нот


Death - Baptized in Blood - текст песни, таба, бас-таба, видео

Регистрация Запомнить меня
Войти через:  Facebook Google Twitter Vk Yandex Mail.ru

Death - Baptized in Blood - текст песни, таба, бас-таба, видео

Печатать
Просмотров: 164
As recorded by Death

Transcribed by Pronix
	



Gtr I (D G C F A D) - 'Overdriven'
Gtr II (D G C F A D) - 'Distortion'

  Moderately Q=120
 1/4     4/4
  Gtrs I, II
  Q       H.      E E   H    E E E E  3x H.      E E   H    E E E E
|-----||--------------|---------------||-------------|---------------|
|-----||o-------------|--------------o||-------------|---------------|
|-----||--------------|---------------||-------------|---------------|
|-----||--------------|---------------||-------------|---------------|
|-----||o-2-------3-3-|-2--------2-3-o||-2-------3-3-|-2--------2-3--|
|-7\--||--0-------1-1-|-0----0-1------||-0-------1-1-|-0----0-1------|


    T T T T T T T T T T T T T T T T T T T T T T T T T T T T S S   3x
||----------------------------------------------------------------||
||o--------------------------------------------------------------o||
||----------------------------------------------------------------||
||----------------------------------------------------------------||
||o---------------------------------------------------------6-7--o||
||--4-4-4-4-4-4-4-4-4-4-4-4-5-5-5-5-4-4-4-4-4-4-4-4-4-4-4-4-------||


  T T T T T T T T T T T T T T T T T T T T T T T T T T T T S S
|-------------------------------------------------------------|
|-------------------------------------------------------------|
|-------------------------------------------------------------|
|-------------------------------------------------------------|
|---------------------------------------------------------6-7-|
|-4-4-4-4-4-4-4-4-4-4-4-4-5-5-5-5-4-4-4-4-4-4-4-4-4-4-4-4-----|


  T T T T T T T T T T T T T T T T T T T T T T T T T T T T S S
|-------------------------------------------------------------|
|-------------------------------------------------------------|
|-------------------------------------------------------------|
|-------------------------------------------------------------|
|---------------------------------------------------------6-7-|
|-4-4-4-4-4-4-4-4-4-4-4-4-5-5-5-5-4-4-4-4-4-4-4-4-4-4-4-4-----|


  T T T T T T T T T T T T T T T T T T T T T T T T T T T T S S
|-------------------------------------------------------------|
|-------------------------------------------------------------|
|-------------------------------------------------------------|
|-------------------------------------------------------------|
|---------------------------------------------------------6-7-|
|-4-4-4-4-4-4-4-4-4-4-4-4-5-5-5-5-4-4-4-4-4-4-4-4-4-4-4-4-----|


  T T T T T T T T T T T T T T T T T T T T T T T T T T T T S S
|-------------------------------------------------------------|
|-------------------------------------------------------------|
|-------------------------------------------------------------|
|-------------------------------------------------------------|
|---------------------------------------------------------6-7-|
|-4-4-4-4-4-4-4-4-4-4-4-4-5-5-5-5-4-4-4-4-4-4-4-4-4-4-4-4-----|


  T T T T T T T T T T T T T T T T T T T T T T T T T T T T S S   E. E Q  E E
|-------------------------------------------------------------|-------------|
|-------------------------------------------------------------|-------------|
|-------------------------------------------------------------|---------6---|
|-------------------------------------------------------------|-6--6-7--4---|
|---------------------------------------------------------6-7-|-4--4-5----7-|
|-4-4-4-4-4-4-4-4-4-4-4-4-5-5-5-5-4-4-4-4-4-4-4-4-4-4-4-4-----|-----------5-|


  T T T T T T T T T T T T T T T T T T T T T T T T T T T T T T T T
|-----------------------------------------------------------------|
|-----------------------------------------------------------------|
|-----------------------------------------------------------------|
|-----------------------------------------------------------------|
|-----------------------------------------------------------------|
|-3-3-3-3-3-3-3-3-3-3-3-3-3-3-3-3-2-2-2-2-2-2-2-2-2-2-2-2-2-2-2-2-|


  E. E Q  E E
|-------------|
|-------------|
|---------6---|
|-6--6-7--4---|
|-4--4-5----7-|
|-----------5-|


  T T T T T T T T T T T T T T T T T T T T T T T T T T T T T T T T
|-----------------------------------------------------------------|
|-----------------------------------------------------------------|
|-----------------------------------------------------------------|
|-----------------------------------------------------------------|
|-----------------------------------------------------------------|
|-3-3-3-3-3-3-3-3-3-3-3-3-3-3-3-3-2-2-2-2-2-2-2-2-2-2-2-2-2-2-2-2-|


  Faster Q=130
  T T T T T T T T S S S S T T T T T T T T S S S S
|-------------------------------------------------|
|-------------------------------------------------|
|-------------------------------------------------|
|-----------------5s6-6s7-----------------5s6-6s7-|
|-----------------3s4-4s5-----------------3s4-4s5-|
|-2-2-2-2-2-2-2-2---------2-2-2-2-2-2-2-2---------|


  T T T T T T T T S S S S T T T T T T T T S S E
|-----------------------------------------------|
|-----------------------------------------------|
|-----------------------------------------------|
|-----------------5s6-6s7-----------------6s7-6-|
|-----------------3s4-4s5-----------------4s5-4-|
|-2-2-2-2-2-2-2-2---------2-2-2-2-2-2-2-2-------|


  T T T T T T T T S S S S T T T T T T T T S S S S
|-------------------------------------------------|
|-------------------------------------------------|
|-------------------------------------------------|
|-----------------5s6-6s7-----------------5s6-6s7-|
|-----------------3s4-4s5-----------------3s4-4s5-|
|-2-2-2-2-2-2-2-2---------2-2-2-2-2-2-2-2---------|


  T T T T T T T T S S S S T T T T T T T T S S E
|-----------------------------------------------|
|-----------------------------------------------|
|-----------------------------------------------|
|-----------------5s6-6s7-----------------6s7-6-|
|-----------------3s4-4s5-----------------4s5-4-|
|-2-2-2-2-2-2-2-2---------2-2-2-2-2-2-2-2-------|


  T T T T T T T T S S S S T T T T T T T T S S S S
|-------------------------------------------------|
|-------------------------------------------------|
|-------------------------------------------------|
|-----------------5s6-6s7-----------------5s6-6s7-|
|-----------------3s4-4s5-----------------3s4-4s5-|
|-2-2-2-2-2-2-2-2---------2-2-2-2-2-2-2-2---------|


  T T T T T T T T S S S S T T T T T T T T S S E
|-----------------------------------------------|
|-----------------------------------------------|
|-----------------------------------------------|
|-----------------5s6-6s7-----------------6s7-6-|
|-----------------3s4-4s5-----------------4s5-4-|
|-2-2-2-2-2-2-2-2---------2-2-2-2-2-2-2-2-------|


  T T T T T T T T S S S S T T T T T T T T S S S S
|-------------------------------------------------|
|-------------------------------------------------|
|-------------------------------------------------|
|-----------------5s6-6s7-----------------5s6-6s7-|
|-----------------3s4-4s5-----------------3s4-4s5-|
|-2-2-2-2-2-2-2-2---------2-2-2-2-2-2-2-2---------|


  T T T T T T T T S S S S T T T T T T T T S S E
|-----------------------------------------------|
|-----------------------------------------------|
|-----------------------------------------------|
|-----------------5s6-6s7-----------------6s7-6-|
|-----------------3s4-4s5-----------------4s5-4-|
|-2-2-2-2-2-2-2-2---------2-2-2-2-2-2-2-2-------|


  T T T T T T T T S S S S T T T T T T T T S S S S
|-------------------------------------------------|
|-------------------------------------------------|
|-------------------------------------------------|
|-----------------5s6-6s7-----------------5s6-6s7-|
|-----------------3s4-4s5-----------------3s4-4s5-|
|-2-2-2-2-2-2-2-2---------2-2-2-2-2-2-2-2---------|


  T T T T T T T T S S S S T T T T T T T T S S E
|-----------------------------------------------|
|-----------------------------------------------|
|-----------------------------------------------|
|-----------------5s6-6s7-----------------6s7-6-|
|-----------------3s4-4s5-----------------4s5-4-|
|-2-2-2-2-2-2-2-2---------2-2-2-2-2-2-2-2-------|


  T T T T T T T T S S S S T T T T T T T T S S S S
|-------------------------------------------------|
|-------------------------------------------------|
|-------------------------------------------------|
|-----------------5s6-6s7-----------------5s6-6s7-|
|-----------------3s4-4s5-----------------3s4-4s5-|
|-2-2-2-2-2-2-2-2---------2-2-2-2-2-2-2-2---------|


  T T T T T T T T S S S S T T T T T T T T S S E
|-----------------------------------------------|
|-----------------------------------------------|
|-----------------------------------------------|
|-----------------5s6-6s7-----------------6s7-6-|
|-----------------3s4-4s5-----------------4s5-4-|
|-2-2-2-2-2-2-2-2---------2-2-2-2-2-2-2-2-------|


  A Tempo Q=120
  H.      E E   H    E E E E
|-------------|--------------|
|-------------|--------------|
|-------------|--------------|
|-------------|--------------|
|-2-------3-3-|-2--------2-3-|
|-0-------1-1-|-0----0-1-----|


  T T T T T T T T T T T T T T T T T T T T T T T T T T T T T T T T
|-----------------------------------------------------------------|
|-----------------------------------------------------------------|
|-----------------------------------------------------------------|
|-----------------------------------------------------------------|
|-1-1-1-1-1-1-1-1-1-1-1-1-----------------------------------------|
|-------------------------2-2-2-2-1-1-1-1-1-1-1-1-1-1-1-1-1-1-1-1-|


  H.      E E   H    E E E E
|-------------|--------------|
|-------------|--------------|
|-------------|--------------|
|-------------|--------------|
|-2-------3-3-|-2--------2-3-|
|-0-------1-1-|-0----0-1-----|


  T T T T T T T T T T T T T T T T T T T T T T T T T T T T T T T T
|-----------------------------------------------------------------|
|-----------------------------------------------------------------|
|-----------------------------------------------------------------|
|-----------------------------------------------------------------|
|-1-1-1-1-1-1-1-1-1-1-1-1-----------------------------------------|
|-------------------------2-2-2-2-1-1-1-1-1-1-1-1-1-1-1-1-1-1-1-1-|


  H.      E E   H    E E E E
|-------------|--------------|
|-------------|--------------|
|-------------|--------------|
|-------------|--------------|
|-2-------3-3-|-2--------2-3-|
|-0-------1-1-|-0----0-1-----|


  T T T T T T T T T T T T T T T T T T T T T T T T T T T T T T T T
|-----------------------------------------------------------------|
|-----------------------------------------------------------------|
|-----------------------------------------------------------------|
|-----------------------------------------------------------------|
|-1-1-1-1-1-1-1-1-1-1-1-1-----------------------------------------|
|-------------------------2-2-2-2-1-1-1-1-1-1-1-1-1-1-1-1-1-1-1-1-|


  H.      E E   H    E E E E
|-------------|--------------|
|-------------|--------------|
|-------------|--------------|
|-------------|--------------|
|-2-------3-3-|-2--------2-3-|
|-0-------1-1-|-0----0-1-----|


  T T T T T T T T T T T T T T T T T T T T T T T T T T T T T T T T
|-----------------------------------------------------------------|
|-----------------------------------------------------------------|
|-----------------------------------------------------------------|
|-----------------------------------------------------------------|
|-1-1-1-1-1-1-1-1-1-1-1-1-----------------------------------------|
|-------------------------2-2-2-2-1-1-1-1-1-1-1-1-1-1-1-1-1-1-1-1-|


    T T T T T T T T T T T T T T T T T T T T T T T T T T T T S S   3x
||----------------------------------------------------------------||
||o--------------------------------------------------------------o||
||----------------------------------------------------------------||
||----------------------------------------------------------------||
||o---------------------------------------------------------6-7--o||
||--4-4-4-4-4-4-4-4-4-4-4-4-5-5-5-5-4-4-4-4-4-4-4-4-4-4-4-4-------||


  T T T T T T T T T T T T T T T T T T T T T T T T T T T T S S
|-------------------------------------------------------------|
|-------------------------------------------------------------|
|-------------------------------------------------------------|
|-------------------------------------------------------------|
|---------------------------------------------------------6-7-|
|-4-4-4-4-4-4-4-4-4-4-4-4-5-5-5-5-4-4-4-4-4-4-4-4-4-4-4-4-----|


  T T T T T T T T T T T T T T T T T T T T T T T T T T T T S S
|-------------------------------------------------------------|
|-------------------------------------------------------------|
|-------------------------------------------------------------|
|-------------------------------------------------------------|
|---------------------------------------------------------6-7-|
|-4-4-4-4-4-4-4-4-4-4-4-4-5-5-5-5-4-4-4-4-4-4-4-4-4-4-4-4-----|


  T T T T T T T T T T T T T T T T T T T T T T T T T T T T S S
|-------------------------------------------------------------|
|-------------------------------------------------------------|
|-------------------------------------------------------------|
|-------------------------------------------------------------|
|---------------------------------------------------------6-7-|
|-4-4-4-4-4-4-4-4-4-4-4-4-5-5-5-5-4-4-4-4-4-4-4-4-4-4-4-4-----|


  T T T T T T T T T T T T T T T T T T T T T T T T T T T T S S
|-------------------------------------------------------------|
|-------------------------------------------------------------|
|-------------------------------------------------------------|
|-------------------------------------------------------------|
|---------------------------------------------------------6-7-|
|-4-4-4-4-4-4-4-4-4-4-4-4-5-5-5-5-4-4-4-4-4-4-4-4-4-4-4-4-----|


  T T T T T T T T T T T T T T T T T T T T T T T T T T T T S S   E. E Q  E E
|-------------------------------------------------------------|-------------|
|-------------------------------------------------------------|-------------|
|-------------------------------------------------------------|---------6---|
|-------------------------------------------------------------|-6--6-7--4---|
|---------------------------------------------------------6-7-|-4--4-5----7-|
|-4-4-4-4-4-4-4-4-4-4-4-4-5-5-5-5-4-4-4-4-4-4-4-4-4-4-4-4-----|-----------5-|


  T T T T T T T T T T T T T T T T T T T T T T T T T T T T T T T T
|-----------------------------------------------------------------|
|-----------------------------------------------------------------|
|-----------------------------------------------------------------|
|-----------------------------------------------------------------|
|-----------------------------------------------------------------|
|-3-3-3-3-3-3-3-3-3-3-3-3-3-3-3-3-2-2-2-2-2-2-2-2-2-2-2-2-2-2-2-2-|


  E. E Q  E E
|-------------|
|-------------|
|---------6---|
|-6--6-7--4---|
|-4--4-5----7-|
|-----------5-|


  T T T T T T T T T T T T T T T T T T T T T T T T T T T T T T T T
|-----------------------------------------------------------------|
|-----------------------------------------------------------------|
|-----------------------------------------------------------------|
|-----------------------------------------------------------------|
|-----------------------------------------------------------------|
|-3-3-3-3-3-3-3-3-3-3-3-3-3-3-3-3-2-2-2-2-2-2-2-2-2-2-2-2-2-2-2-2-|


  Faster Q=130
  T T T T T T T T S S S S T T T T T T T T S S S S
|-------------------------------------------------|
|-------------------------------------------------|
|-------------------------------------------------|
|-----------------5s6-6s7-----------------5s6-6s7-|
|-----------------3s4-4s5-----------------3s4-4s5-|
|-2-2-2-2-2-2-2-2---------2-2-2-2-2-2-2-2---------|


  T T T T T T T T S S S S T T T T T T T T S S E
|-----------------------------------------------|
|-----------------------------------------------|
|-----------------------------------------------|
|-----------------5s6-6s7-----------------6s7-6-|
|-----------------3s4-4s5-----------------4s5-4-|
|-2-2-2-2-2-2-2-2---------2-2-2-2-2-2-2-2-------|


  T T T T T T T T S S S S T T T T T T T T S S S S
|-------------------------------------------------|
|-------------------------------------------------|
|-------------------------------------------------|
|-----------------5s6-6s7-----------------5s6-6s7-|
|-----------------3s4-4s5-----------------3s4-4s5-|
|-2-2-2-2-2-2-2-2---------2-2-2-2-2-2-2-2---------|


  T T T T T T T T S S S S T T T T T T T T S S E
|-----------------------------------------------|
|-----------------------------------------------|
|-----------------------------------------------|
|-----------------5s6-6s7-----------------6s7-6-|
|-----------------3s4-4s5-----------------4s5-4-|
|-2-2-2-2-2-2-2-2---------2-2-2-2-2-2-2-2-------|


  T T T T T T T T S S S S T T T T T T T T S S S S
|-------------------------------------------------|
|-------------------------------------------------|
|-------------------------------------------------|
|-----------------5s6-6s7-----------------5s6-6s7-|
|-----------------3s4-4s5-----------------3s4-4s5-|
|-2-2-2-2-2-2-2-2---------2-2-2-2-2-2-2-2---------|


  T T T T T T T T S S S S T T T T T T T T S S E
|-----------------------------------------------|
|-----------------------------------------------|
|-----------------------------------------------|
|-----------------5s6-6s7-----------------6s7-6-|
|-----------------3s4-4s5-----------------4s5-4-|
|-2-2-2-2-2-2-2-2---------2-2-2-2-2-2-2-2-------|


  T T T T T T T T S S S S T T T T T T T T S S S S
|-------------------------------------------------|
|-------------------------------------------------|
|-------------------------------------------------|
|-----------------5s6-6s7-----------------5s6-6s7-|
|-----------------3s4-4s5-----------------3s4-4s5-|
|-2-2-2-2-2-2-2-2---------2-2-2-2-2-2-2-2---------|


  T T T T T T T T S S S S T T T T T T T T S S E
|-----------------------------------------------|
|-----------------------------------------------|
|-----------------------------------------------|
|-----------------5s6-6s7-----------------6s7-6-|
|-----------------3s4-4s5-----------------4s5-4-|
|-2-2-2-2-2-2-2-2---------2-2-2-2-2-2-2-2-------|


  T T T T T T T T S S S S T T T T T T T T S S S S
|-------------------------------------------------|
|-------------------------------------------------|
|-------------------------------------------------|
|-----------------5s6-6s7-----------------5s6-6s7-|
|-----------------3s4-4s5-----------------3s4-4s5-|
|-2-2-2-2-2-2-2-2---------2-2-2-2-2-2-2-2---------|


  T T T T T T T T S S S S T T T T T T T T S S E
|-----------------------------------------------|
|-----------------------------------------------|
|-----------------------------------------------|
|-----------------5s6-6s7-----------------6s7-6-|
|-----------------3s4-4s5-----------------4s5-4-|
|-2-2-2-2-2-2-2-2---------2-2-2-2-2-2-2-2-------|


  T T T T T T T T S S S S T T T T T T T T S S S S
|-------------------------------------------------|
|-------------------------------------------------|
|-------------------------------------------------|
|-----------------5s6-6s7-----------------5s6-6s7-|
|-----------------3s4-4s5-----------------3s4-4s5-|
|-2-2-2-2-2-2-2-2---------2-2-2-2-2-2-2-2---------|


  T T T T T T T T S S S S T T T T T T T T S S E
|-----------------------------------------------|
|-----------------------------------------------|
|-----------------------------------------------|
|-----------------5s6-6s7-----------------6s7-6-|
|-----------------3s4-4s5-----------------4s5-4-|
|-2-2-2-2-2-2-2-2---------2-2-2-2-2-2-2-2-------|


  A Tempo Q=120
  H.      E E   H    E E E E
|-------------|--------------|
|-------------|--------------|
|-------------|--------------|
|-------------|--------------|
|-2-------3-3-|-2--------2-3-|
|-0-------1-1-|-0----0-1-----|


  T T T T T T T T T T T T T T T T T T T T T T T T T T T T T T T T
|-----------------------------------------------------------------|
|-----------------------------------------------------------------|
|-----------------------------------------------------------------|
|-----------------------------------------------------------------|
|-1-1-1-1-1-1-1-1-1-1-1-1-----------------------------------------|
|-------------------------2-2-2-2-1-1-1-1-1-1-1-1-1-1-1-1-1-1-1-1-|


  H.      E E   H    E E E E
|-------------|--------------|
|-------------|--------------|
|-------------|--------------|
|-------------|--------------|
|-2-------3-3-|-2--------2-3-|
|-0-------1-1-|-0----0-1-----|


  T T T T T T T T T T T T T T T T T T T T T T T T T T T T T T T T
|-----------------------------------------------------------------|
|-----------------------------------------------------------------|
|-----------------------------------------------------------------|
|-----------------------------------------------------------------|
|-1-1-1-1-1-1-1-1-1-1-1-1-----------------------------------------|
|-------------------------2-2-2-2-1-1-1-1-1-1-1-1-1-1-1-1-1-1-1-1-|


  H.      E E   H    E E E E
|-------------|--------------|
|-------------|--------------|
|-------------|--------------|
|-------------|--------------|
|-2-------3-3-|-2--------2-3-|
|-0-------1-1-|-0----0-1-----|


  T T T T T T T T T T T T T T T T T T T T T T T T T T T T T T T T
|-----------------------------------------------------------------|
|-----------------------------------------------------------------|
|-----------------------------------------------------------------|
|-----------------------------------------------------------------|
|-1-1-1-1-1-1-1-1-1-1-1-1-----------------------------------------|
|-------------------------2-2-2-2-1-1-1-1-1-1-1-1-1-1-1-1-1-1-1-1-|


  H.      E E   H    E E E E
|-------------|--------------|
|-------------|--------------|
|-------------|--------------|
|-------------|--------------|
|-2-------3-3-|-2--------2-3-|
|-0-------1-1-|-0----0-1-----|


  T T T T T T T T T T T T T T T T T T T T T T T T T T T T T T T T
|-----------------------------------------------------------------|
|-----------------------------------------------------------------|
|-----------------------------------------------------------------|
|-----------------------------------------------------------------|
|-1-1-1-1-1-1-1-1-1-1-1-1-----------------------------------------|
|-------------------------2-2-2-2-1-1-1-1-1-1-1-1-1-1-1-1-1-1-1-1-|


    T T T T T T T T T T T T T T T T T T T T T T T T T T T T S S   4x
||----------------------------------------------------------------||
||o--------------------------------------------------------------o||
||----------------------------------------------------------------||
||----------------------------------------------------------------||
||o---------------------------------------------------------6-7--o||
||--4-4-4-4-4-4-4-4-4-4-4-4-5-5-5-5-4-4-4-4-4-4-4-4-4-4-4-4-------||


  Faster Q=160
  Gtr II
  S S S S S S S S S S S S S S S S   S S S S S S S S S S S S S S S S
|---------------------------------|---------------------------------|
|---------------------------------|---------------------------------|
|---------------------------------|---------------------------------|
|---------------------------------|-----------------4-4-4-4-5-5-----|
|-6-6-6-6-7-6-6-6-6-6-6-6-7-6-6-6-|-----------------------------5-5-|
|---------------------------------|-7-7-7-7-6-6-6-6-----------------|


  Gtrs I, II
  S S S S S S S S S S S S S S S S   S S S S S S S S S S S S S S S S
|---------------------------------|---------------------------------|
|---------------------------------|---------------------------------|
|---------------------------------|---------------------------------|
|---------------------------------|-----------------4-4-4-4-5-5-----|
|-6-6-6-6-7-6-6-6-6-6-6-6-7-6-6-6-|-----------------------------5-5-|
|---------------------------------|-7-7-7-7-6-6-6-6-----------------|


  S S S S S S S S S S S S S S S S   S S S S S S S S S S S S S S S S
|---------------------------------|---------------------------------|
|---------------------------------|---------------------------------|
|---------------------------------|---------------------------------|
|---------------------------------|-----------------4-4-4-4-5-5-----|
|-6-6-6-6-7-6-6-6-6-6-6-6-7-6-6-6-|-----------------------------5-5-|
|---------------------------------|-7-7-7-7-6-6-6-6-----------------|


  S S S S S S S S S S S S S S S S   S S S S S S S S S S S S S S S S
|---------------------------------|---------------------------------|
|---------------------------------|---------------------------------|
|---------------------------------|---------------------------------|
|---------------------------------|-----------------4-4-4-4-5-5-----|
|-6-6-6-6-7-6-6-6-6-6-6-6-7-6-6-6-|-----------------------------5-5-|
|---------------------------------|-7-7-7-7-6-6-6-6-----------------|


  S S S S S S S S S S S S S S S S   S S S S S S S S S S S S S S S S
|---------------------------------|---------------------------------|
|---------------------------------|---------------------------------|
|---------------------------------|---------------------------------|
|---------------------------------|-----------------4-4-4-4-5-5-----|
|-6-6-6-6-7-6-6-6-6-6-6-6-7-6-6-6-|-----------------------------5-5-|
|---------------------------------|-7-7-7-7-6-6-6-6-----------------|


  A Tempo Q=120
  Gtr II
  T T T T T T T T T T T T T T T T T T T T T T T T T T T T S S
|-------------------------------------------------------------|
|-------------------------------------------------------------|
|-------------------------------------------------------------|
|-------------------------------------------------------------|
|---------------------------------------------------------5-6-|
|-3-3-3-3-3-3-3-3-3-3-3-3-4-4-4-4-3-3-3-3-3-3-3-3-3-3-3-3-----|


  T T T T T T T T T T T T T T T T T T T T T T T T T T T T S S
|-------------------------------------------------------------|
|-------------------------------------------------------------|
|-------------------------------------------------------------|
|-------------------------------------------------------------|
|---------------------------------------------------------5-6-|
|-3-3-3-3-3-3-3-3-3-3-3-3-4-4-4-4-3-3-3-3-3-3-3-3-3-3-3-3-----|


  T T T T T T T T T T T T T T T T T T T T T T T T T T T T S S
|-------------------------------------------------------------|
|-------------------------------------------------------------|
|-------------------------------------------------------------|
|-------------------------------------------------------------|
|---------------------------------------------------------5-6-|
|-3-3-3-3-3-3-3-3-3-3-3-3-4-4-4-4-3-3-3-3-3-3-3-3-3-3-3-3-----|


  T T T T T T T T T T T T T T T T T T T T T T T T T T T T S S
|-------------------------------------------------------------|
|-------------------------------------------------------------|
|-------------------------------------------------------------|
|-------------------------------------------------------------|
|---------------------------------------------------------5-6-|
|-3-3-3-3-3-3-3-3-3-3-3-3-4-4-4-4-3-3-3-3-3-3-3-3-3-3-3-3-----|


  T T T T T T T T T T T T T T T T T T T T T T T T T T T T S S
|-------------------------------------------------------------|
|-------------------------------------------------------------|
|-------------------------------------------------------------|
|-------------------------------------------------------------|
|---------------------------------------------------------4-5-|
|-2-2-2-2-2-2-2-2-2-2-2-2-3-3-3-3-2-2-2-2-2-2-2-2-2-2-2-2-----|


  T T T T T T T T T T T T T T T T T T T T T T T T T T T T S S
|-------------------------------------------------------------|
|-------------------------------------------------------------|
|-------------------------------------------------------------|
|-------------------------------------------------------------|
|---------------------------------------------------------4-5-|
|-2-2-2-2-2-2-2-2-2-2-2-2-3-3-3-3-2-2-2-2-2-2-2-2-2-2-2-2-----|


  T T T T T T T T T T T T T T T T T T T T T T T T T T T T S S
|-------------------------------------------------------------|
|-------------------------------------------------------------|
|-------------------------------------------------------------|
|-------------------------------------------------------------|
|---------------------------------------------------------4-5-|
|-2-2-2-2-2-2-2-2-2-2-2-2-3-3-3-3-2-2-2-2-2-2-2-2-2-2-2-2-----|


  T T T T T T T T T T T T T T T T T T T T T T T T T T T T S S
|-------------------------------------------------------------|
|-------------------------------------------------------------|
|-------------------------------------------------------------|
|-------------------------------------------------------------|
|---------------------------------------------------------4-5-|
|-2-2-2-2-2-2-2-2-2-2-2-2-3-3-3-3-2-2-2-2-2-2-2-2-2-2-2-2-----|


  Gtrs I, II
  H.      E E   H    E E E E
|-------------|--------------|
|-------------|--------------|
|-------------|--------------|
|-------------|--------------|
|-2-------3-3-|-2--------2-3-|
|-0-------1-1-|-0----0-1-----|


  T T T T T T T T T T T T T T T T T T T T T T T T T T T T T T T T
|-----------------------------------------------------------------|
|-----------------------------------------------------------------|
|-----------------------------------------------------------------|
|-----------------------------------------------------------------|
|-1-1-1-1-1-1-1-1-1-1-1-1-----------------------------------------|
|-------------------------2-2-2-2-1-1-1-1-1-1-1-1-1-1-1-1-1-1-1-1-|


  H.      E E   H    E E E E
|-------------|--------------|
|-------------|--------------|
|-------------|--------------|
|-------------|--------------|
|-2-------3-3-|-2--------2-3-|
|-0-------1-1-|-0----0-1-----|


  T T T T T T T T T T T T T T T T T T T T T T T T T T T T T T T T
|-----------------------------------------------------------------|
|-----------------------------------------------------------------|
|-----------------------------------------------------------------|
|-----------------------------------------------------------------|
|-1-1-1-1-1-1-1-1-1-1-1-1-----------------------------------------|
|-------------------------2-2-2-2-1-1-1-1-1-1-1-1-1-1-1-1-1-1-1-1-|


  H.      E E   H    E E E E
|-------------|--------------|
|-------------|--------------|
|-------------|--------------|
|-------------|--------------|
|-2-------3-3-|-2--------2-3-|
|-0-------1-1-|-0----0-1-----|


  T T T T T T T T T T T T T T T T T T T T T T T T T T T T T T T T
|-----------------------------------------------------------------|
|-----------------------------------------------------------------|
|-----------------------------------------------------------------|
|-----------------------------------------------------------------|
|-1-1-1-1-1-1-1-1-1-1-1-1-----------------------------------------|
|-------------------------2-2-2-2-1-1-1-1-1-1-1-1-1-1-1-1-1-1-1-1-|


  H.      E E   H    E E E E
|-------------|--------------|
|-------------|--------------|
|-------------|--------------|
|-------------|--------------|
|-2-------3-3-|-2--------2-3-|
|-0-------1-1-|-0----0-1-----|


  T T T T T T T T T T T T T T T T T T T T T T T T T T T T T T T T
|-----------------------------------------------------------------|
|-----------------------------------------------------------------|
|-----------------------------------------------------------------|
|-----------------------------------------------------------------|
|-1-1-1-1-1-1-1-1-1-1-1-1-----------------------------------------|
|-------------------------2-2-2-2-1-1-1-1-1-1-1-1-1-1-1-1-1-1-1-1-|


    T T T T T T T T T T T T T T T T T T T T T T T T T T T T S S   4x
||----------------------------------------------------------------||
||o--------------------------------------------------------------o||
||----------------------------------------------------------------||
||----------------------------------------------------------------||
||o---------------------------------------------------------6-7--o||
||--4-4-4-4-4-4-4-4-4-4-4-4-5-5-5-5-4-4-4-4-4-4-4-4-4-4-4-4-------||


  Slower Q=100
  Gtr II
  T T T T T T T T T T T T T T T T T T T T T T T T T T T T T T T T
|-----------------------------------------------------------------|
|-----------------------------------------------------------------|
|-----------------------------------------------------------------|
|-----------------------------------------------------------------|
|-6-6-6-6-6-7-6-7-6-6-6-6-9-9-6-6-6-6-6-6-7-7-6-6-4-4-4-4-6-4-4-4-|
|-----------------------------------------------------------------|


  Gtr I
  E       Q.                       E       E       Q
|------------------------------------------------------------------|
|------------------------------------------------------------------|
|------------------------------------------------------------------|
|-8--------------------------------8---------------6---------------|
|-6--------------------------------6---------------4---------------|
|------------------------------------------------------------------|
|
| Gtr II
| T T T T T  T T T T T T T T T T T T T T T T T T T T T T T T T T T
|------------------------------------------------------------------|
|------------------------------------------------------------------|
|------------------------------------------------------------------|
|------------------------------------------------------------------|
|-6-6-6-6-6--7-6-7-6-6-6-6-9-9-6-6-6-6-6-6-7-7-6-6-4-4-4-4-6-4-4-4-|
|------------------------------------------------------------------|


  E       Q.                       E       E       Q
|------------------------------------------------------------------|
|------------------------------------------------------------------|
|------------------------------------------------------------------|
|-8--------------------------------8---------------6---------------|
|-6--------------------------------6---------------4---------------|
|------------------------------------------------------------------|
|
| T T T T T  T T T T T T T T T T T T T T T T T T T T T T T T T T T
|------------------------------------------------------------------|
|------------------------------------------------------------------|
|------------------------------------------------------------------|
|------------------------------------------------------------------|
|-6-6-6-6-6--7-6-7-6-6-6-6-9-9-6-6-6-6-6-6-7-7-6-6-4-4-4-4-6-4-4-4-|
|------------------------------------------------------------------|


  E       Q.                       E       E       Q
|------------------------------------------------------------------|
|------------------------------------------------------------------|
|------------------------------------------------------------------|
|-8--------------------------------8---------------6---------------|
|-6--------------------------------6---------------4---------------|
|------------------------------------------------------------------|
|
| T T T T T  T T T T T T T T T T T T T T T T T T T T T T T T T T T
|------------------------------------------------------------------|
|------------------------------------------------------------------|
|------------------------------------------------------------------|
|------------------------------------------------------------------|
|-6-6-6-6-6--7-6-7-6-6-6-6-9-9-6-6-6-6-6-6-7-7-6-6-4-4-4-4-6-4-4-4-|
|------------------------------------------------------------------|


  A Tempo Q=120
  Gtrs I, II
  H.      E E   H    E E E E   H.      E E   H    E E E E
|-------------|--------------|-------------|--------------|
|-------------|--------------|-------------|--------------|
|-------------|--------------|-------------|--------------|
|-------------|--------------|-------------|--------------|
|-2-------3-3-|-2--------2-3-|-2-------3-3-|-2--------2-3-|
|-0-------1-1-|-0----0-1-----|-0-------1-1-|-0----0-1-----|


                                                           1/4
  H.      E E   H    E E E E   H.      E E   H    E E E E   Q
|-------------|--------------|-------------|--------------|----*|
|-------------|--------------|-------------|--------------|----*|
|-------------|--------------|-------------|--------------|----*|
|-------------|--------------|-------------|--------------|----*|
|-2-------3-3-|-2--------2-3-|-2-------3-3-|-2--------2-3-|-2--*|
|-0-------1-1-|-0----0-1-----|-0-------1-1-|-0----0-1-----|-0--*|



Duration Legend
---------------
W - whole; H - half; Q - quarter; E - 8th; S - 16th; T - 32nd; X - 64th; a - acciaccatura
+ - note tied to previous; . - note dotted; .. - note double dotted
Uncapitalized letters represent notes that are staccato (1/2 duration)
Irregular groupings are notated above the duration line
Duration letters will always appear directly above the note/fret number it represents the
duration for.  Duration letters with no fret number below them represent rests.  Multi-
bar rests are notated in the form Wxn, where n is the number of bars to rest for.  Low
melody durations appear below the staff

Tablature Legend
----------------
 h   - hammer-on
 p   - pull-off
 b   - bend
 pb  - pre-bend
 r   - bend release (if no number after the r, then release immediately)
 /\  - slide into or out of (from/to "nowhere")
 s   - legato slide
 S   - shift slide
 - natural harmonic
[n]  - artificial harmonic
n(n) - tapped harmonic
 ~   - vibrato
 tr  - trill
 T   - tap
 TP  - trem. picking
 PM  - palm muting
\n/  - tremolo bar dip; n = amount to dip
 \n  - tremolo bar down
 n/  - tremolo bar up
/n\  - tremolo bar inverted dip
 =   - hold bend; also acts as connecting device for hammers/pulls
 <> - volume swell (louder/softer)
 x   - on rhythm slash represents muted slash
 o   - on rhythm slash represents single note slash

Misc Legend
-----------
 |  - bar
||  - double bar
||o - repeat start
o|| - repeat end
*|  - double bar (ending)
 :  - bar (freetime)
 $  - Segno
 &  - Coda
Tempo markers -  = BPM(8/16=s8/s16), where s8 = swing 8ths, s16 = swing 16ths

Добавлено: 13.10.2013
Другие материалы по этой песне:
  • Аккорды и текст

Страница создана 05.06.2012
http://primanota.ru/death/baptized-in-blood-chords.htm
Привет, Гость.
Предлагаем пройти революционный курс по гитаре.
Подарок от PrimaNota.Ru, забирай!