PrimaNota.ru - самый крупный в мире бесплатный архив песенных текстов, аккордов, табулатур и нот


Death - 1,000 Eyes - текст песни, таба, бас-таба, видео

Регистрация Запомнить меня
Войти через:  Facebook Google Twitter Vk Yandex Mail.ru

Death - 1,000 Eyes - текст песни, таба, бас-таба, видео

Печатать
Просмотров: 202
As recorded by Death
(From the 1995 Album SYMBOLIC)

Transcribed by hades & Kheimos


Words and Music by Chuck Schuldiner

E5/B
x 2 2 4 x x

C#5
x 4 6 x x x

G#5
4 6 x x x x

D#5
x 6 8 x x x

A5
x 0 2 x x x

E5
0 2 2 x x x

F5
1 3 x x x x

G5
3 5 x x x x

C5
x 3 5 x x x

B5
x 2 4 x x x

Gtr I (D G C F A D) - 'Untitled'
Gtr II (D G C F A D) - 'Untitled'
Gtr III (D G C F A D) - 'Untitled'

 Intro
  Moderately Q=115
          E5 C5                       D5 Bb5
 4/4
  Gtrs I, II
  PM----|       PM------------------|      PM-----------
  S S S S Q   E S S S S S S   S S S S Q  E S S S S S S
|---------------------------|--------------------------|
|---------------------------|--------------------------|
|---------------------------|--------------------------|
|---------9-----------------|---------7----------------|
|---------7--10-------------|---------5--8-------------|
|-0-0-0-0-------8-8-8-8-0-0-|-0-0-0-0------6-6-6-6-0-0-|


          E5 C5                       E5 Bb5
 -------|       PM------------------|      PM--------|
  S S S S Q   E S S S S S S   S S S S Q  E S S S S S S
|---------------------------|-----------------------------|
|---------------------------|-----------------------------|
|---------------------------|-----------------------------|
|---------9-----------------|---------9-------------------|
|---------7--10-------------|---------7--8----------------|
|-0-0-0-0-------8-8-8-8-5-5-|-5-5-5-5------6-6-6-6-0-0----|


          E5 G#5                     E5 C5
  PM----|      PM------------------|       PM-----------
  S S S S Q  E S S S S S S   S S S S Q   E S S S S S S
|--------------------------|---------------------------|
|--------------------------|---------------------------|
|--------------------------|---------------------------|
|---------9----------------|---------9-----------------|
|---------7--6-------------|---------7--10-------------|
|-0-0-0-0------4-4-4-4-0-0-|-0-0-0-0-------8-8-8-8-0-0-|


          E5 G#5                     E5 Bb5
 -------|      PM------------------|      PM--------|
  S S S S Q  E S S S S S S   S S S S Q  E S S S S S S
|--------------------------|-----------------------------||
|--------------------------|-----------------------------||
|--------------------------|-----------------------------||
|---------9----------------|---------9-------------------||
|---------7--6-------------|---------7--8----------------||
|-0-0-0-0------4-4-4-4-5-5-|-5-5-5-5------6-6-6-6-6-6----||


   Pre-Verse/1st & 3rd Verse
    Faster Q=200
    $
            E5         C/E       E5 C5  G5
    PM----|
    S S S S Q  S S S S  Q     Q  Q   Q   Q
||-------------------------|----------------|
||o------------------------|----------------|
||-------------------------|----------------|
||----------9----------10--|-10--9------12--|
||o-0-0-0-0-7--0-0-0-0--7--|--7--7--10--10--|
||-------------------------|---------8------|


      E5         C/E       E5 C5  D5
  PM|
  E E Q  S S S S  Q     Q  Q   Q   Q
|--------------------|------------------|
|--------------------|------------------|
|--------------------|------------------|
|-----9----------10--|-10--9------------|
|-0-0-7--0-0-0-0--7--|--7--7--10--12----|
|--------------------|---------8--10----|


          E5         C/E       E5 C5  G5
  PM----|
  S S S S Q  S S S S  Q     Q  Q   Q   Q
|------------------------|----------------|
|------------------------|----------------|
|------------------------|----------------|
|---------9----------10--|-10--9------12--|
|-0-0-0-0-7--0-0-0-0--7--|--7--7--10--10--|
|------------------------|---------8------|


                      1.                 2.
      E5         C/E       E5 C5  N.C.   C/E E5 C5  N.C.
  PM|                                                 ~~~~
  E E Q  S S S S  Q     Q  Q   Q  Q       Q  Q   Q    Q
|--------------------|----------------||------------------||
|--------------------|---------------o||------------------||
|--------------------|----------------||------------------||
|-----9----------10--|-10--9----------||-10--9------------||
|-0-0-7--0-0-0-0--7--|--7--7--10-----o||--7--7--10--------||
|--------------------|---------8------||---------8--[10]--||


   2nd Verse
    Slightly Slower Q=155
    G5                            F5
      PM----------------------|     PM------|
    E E S S S S S S S S S S S S   E E S S S S E E E E
||------------------------------|---------------------|
||o-----------------------------|---------------------|
||------------------------------|---------------------|
||------------------------------|---------------------|
||o-5---------------------------|-3-----------3-2---5-|
||--3-0-0-0-0-0-0-0-0-0-0-0-0-0-|-1-0-0-0-0-0-----3---|


  (G#)                              (F)
  PM--------------------------------------------------------------|
  S S S S S S S S S S S S S S S S   S S S S S S S S S S S S S S S S     4x
|---------------------------------|-------------------------------------||
|---------------------------------|------------------------------------o||
|---------------------------------|-------------------------------------||
|---------------------------------|-------------------------------------||
|---------------------------------|------------------------------------o||
|-4-4-4-4-4-4-4-4-4-4-4-4-4-4-4-4-|-1-1-1-1-1-1-1-1-1-1-1-1-1-1-1-1-----||


 Interlude
  Q=115
  E5/B
  Gtrs I, II
   W
   |
   /

  Gtr III
   T            T            T            T
   |----6----|  |----6----|  |----6----|  |----6----|
   S S S S S S  S S S S S S  S S S S S S  S S S S S S
|-----------------------------------------------------|
|-12p8p5h8p5h8-12p8p5h8p5h8-12p8p5h8p5h8-12p8p5h8p5h8-|
|-----------------------------------------------------|
|-----------------------------------------------------|
|-----------------------------------------------------|
|-----------------------------------------------------|


  C#5
  W
  |
  /

  T           T           T           T
  |----6----| |----6----| |----6----| |----6----|
  S S S S S S S S S S S S S S S S S S S S S S S S
|----------------------------------------------------|
|-9p5p2h5p2h5-9p5p2h5p2h5-9p5p2h5p2h5-9p5p2h5p2h5----|
|----------------------------------------------------|
|----------------------------------------------------|
|----------------------------------------------------|
|----------------------------------------------------|


  G#5
   W
   |
   /

   T            T            T            T
   |----6----|  |----6----|  |----6----|  |----6----|
   S S S S S S  S S S S S S  S S S S S S  S S S S S S
|-11p7p4h7p4h7-11p7p4h7p4h7-11p7p4h7p4h7-11p7p4h7p4h7-|
|-----------------------------------------------------|
|-----------------------------------------------------|
|-----------------------------------------------------|
|-----------------------------------------------------|
|-----------------------------------------------------|


  D#5
   W
   |
   /

   T            T            T            T
   |----6----|  |----6----|  |----6----|  |----6----|
   S S S S S S  S S S S S S  S S S S S S  S S S S S S
|--------------------------------------------------------||
|-11p7p4h7p4h7-11p7p4h7p4h7-11p7p4h7p4h7-11p7p4h7p4h7----||
|--------------------------------------------------------||
|--------------------------------------------------------||
|--------------------------------------------------------||
|--------------------------------------------------------||


   Pre-Chorus
    N.C.(Em)
    Gtrs I, II
    PM--------------|               ~~
    S S S S S S S S S  S S  S  S S  E
||------------------------------------|
||o-----------------------------------|
||------------------------------------|
||--------------------10-9----12------|
||o------------------------10----9-10-|
||--0-0-0-0-0-0-0-0-0-----------------|


  (C)
  PM--------------|                 ~~~~
  S S S S S S S S S  S S  S  S  S  +E    4x
|----------------------------------------||
|---------------------------------------o||
|----------------------------------------||
|----------------------------------------||
|-------------------10-9----12----------o||
|-8-8-8-8-8-8-8-8-8------10----10-(10)---||


  Faster Q=210
  N.C.(A5)                          (E5)
  PM-----------------------------------------------------------------
  S S S S S S S S S S S S S S S S   S S S S S S S S S S S S S S S S
|---------------------------------|---------------------------------|
|---------------------------------|---------------------------------|
|---------------------------------|---------------------------------|
|---------------------------------|---------------------------------|
|-0-0-0-0-0-0-0-0-0-0-0-0-0-0-0-0-|---------------------------------|
|---------------------------------|-0-0-0-0-0-0-0-0-0-0-0-0-0-0-0-0-|


  (Bb5)                             (F5)
 -----------------------------------------------------------------|
  S S S S S S S S S S S S S S S S   S S S S S S S S S S S S S S S S
|---------------------------------|------------------------------------||
|---------------------------------|------------------------------------||
|---------------------------------|------------------------------------||
|---------------------------------|------------------------------------||
|-1-1-1-1-1-1-1-1-1-1-1-1-1-1-1-1-|------------------------------------||
|---------------------------------|-1-1-1-1-1-1-1-1-1-1-1-1-1-1-1-1----||


 Chorus
  N.C.(A5)
  Gtr III
   H                H                  H                H
|-----------------------------------|-----------------------------------|
|-10---------------13---------------|-12---------------13---------------|
|-----------------------------------|-----------------------------------|
|-----------------------------------|-----------------------------------|
|-----------------------------------|-----------------------------------|
|-----------------------------------|-----------------------------------|
|
| Gtrs I, II
|  PM--------------------------------------------------------------------
|  S S S S S S S S  S S S S S S S S    S S S S S S S S  S S S S S S S S
|-----------------------------------|-----------------------------------|
|-----------------------------------|-----------------------------------|
|-----------------------------------|-----------------------------------|
|-----------------------------------|-----------------------------------|
|--0-0-0-0-0-0-0-0--0-0-0-0-0-0-0-0-|--0-0-0-0-0-0-0-0--0-0-0-0-0-0-0-0-|
|-----------------------------------|-----------------------------------|


  (E5)
  H                H                  H                H
|----------------------------------|--------------------------------------|
|-----------------12---------------|-13-----------------------------------|
|-9--------------------------------|------------------12------------------|
|----------------------------------|--------------------------------------|
|----------------------------------|--------------------------------------|
|----------------------------------|--------------------------------------|
|
|--------------------------------------------------------------------|
| S S S S S S S S  S S S S S S S S    S S S S S S S S  S S S S S S S S
|----------------------------------|--------------------------------------|
|----------------------------------|--------------------------------------|
|----------------------------------|--------------------------------------|
|----------------------------------|--------------------------------------|
|----------------------------------|--------------------------------------|
|-0-0-0-0-0-0-0-0--0-0-0-0-0-0-0-0-|--0-0-0-0-0-0-0-0--0-0-0-0-0-0-0-0----|


  (F5)
   H                H                  H                H
|-----------------------------------|-----------------------------------|
|------------------13---------------|-12---------------13---------------|
|-10--------------------------------|-----------------------------------|
|-----------------------------------|-----------------------------------|
|-----------------------------------|-----------------------------------|
|-----------------------------------|-----------------------------------|
|
|  PM--------------------------------------------------------------------
|  S S S S S S S S  S S S S S S S S    S S S S S S S S  S S S S S S S S
|-----------------------------------|-----------------------------------|
|-----------------------------------|-----------------------------------|
|-----------------------------------|-----------------------------------|
|-----------------------------------|-----------------------------------|
|-----------------------------------|-----------------------------------|
|--1-1-1-1-1-1-1-1--1-1-1-1-1-1-1-1-|--1-1-1-1-1-1-1-1--1-1-1-1-1-1-1-1-|


                                                                 To Coda
  (G5)
   H                H                  H                H
|-----------------------------------|---------------------------------------|
|------------------15---------------|-12---------------13-------------------|
|-12--------------------------------|---------------------------------------|
|-----------------------------------|---------------------------------------|
|-----------------------------------|---------------------------------------|
|-----------------------------------|---------------------------------------|
|
|---------------------------------------------------------------------|
|  S S S S S S S S  S S S S S S S S    S S S S S S S S  S S S S S S S S
|-----------------------------------|---------------------------------------|
|-----------------------------------|---------------------------------------|
|-----------------------------------|---------------------------------------|
|-----------------------------------|---------------------------------------|
|-----------------------------------|---------------------------------------|
|--3-3-3-3-3-3-3-3--3-3-3-3-3-3-3-3-|--3-3-3-3-3-3-3-3--3-3-3-3-3-3-3-3-----|


  A5                         E5
  Gtrs I, II
  W            +W             W            +W
  |             |             |             |
  /             /             /             /

  Gtr III
  H     H       H     H       H     H       H     H
|------------|-------------|-------------|-------------|
|------12----|-13----12----|-------12----|-13----------|
|-9----------|-------------|-12----------|-------12----|
|-------9----|-10-----9----|--------9----|-10----------|
|-7----------|-------------|-10----------|-------10----|
|------------|-------------|-------------|-------------|
  H     H       H     H       H     H       H     H


  F5                          G5
   W            +W             W            +W
   |             |             |             |
   /             /             /             /

   H     H       H     H       H     H       H     H
|-------------|-------------|-------------|-------------||
|-------12----|-13----12----|-------15----|-12----13----||
|-10----------|-------------|-12----------|-------------||
|--------9----|-10-----9----|-------12----|--9----10----||
|--8----------|-------------|-10----------|-------------||
|-------------|-------------|-------------|-------------||
   H     H       H     H       H     H       H     H


   Bridge Verse
    Q=150
    N.C.                      F5
   4/4               3/4
    Gtrs I, II
    PM----------------------|
    E E E E E E E E   E E E E  Q
||------------------|-------------|
||o-----------------|-------------|
||------------------|-------------|
||------------------|-8-7-----10--|
||o-----------------|-----8-7--8--|
||--0-0-0-0-0-0-0-0-|-------------|


  N.C.                          F5  N.C.
 5/4
  PM--------------------------|
  E E E E E E E E E E   E E E E  Q  S S E  Q
|---------------------|-------------------------|
|---------------------|-------------------------|
|---------------------|-------------------------|
|---------------------|-8-7-----10--------------|
|---------------------|-----8-7--8--7h8-7-------|
|-0-0-0-0-0-0-0-0-0-0-|-------------------[8]---|


 3/4                         5/4
  PM------------------|       PM--------------------------|         ~~~
  E E E E E E   E E E E  Q    E E E E E E E E E E   E E E E  Q  Q   Q
|-------------|-------------|---------------------|-----------------------||
|-------------|-------------|---------------------|----------------------o||
|-------------|-------------|---------------------|-----------------------||
|-------------|-8-7-----10--|---------------------|-8-7-----10------------||
|-------------|-----8-7--8--|---------------------|-----8-7--8--7--[8]---o||
|-0-0-0-0-0-0-|-------------|-0-0-0-0-0-0-0-0-0-0-|-------------5---------||


 Guitar Solo
  N.C.(Emadd11/A)
 4/4
  Gtr III
   PM--------------------------------|
   S  S  S  S  S  S  S  S  S  S  S    S  S  S    +S   S
|-------------------------------------------------------|
|-18-17-15-15-------------------------------------------|
|-------------17-16-14-14-------------------------------|
|-------------------------15-14-12---12-----------------|
|---------------------------------------15-14---(14)-12-|
|-------------------------------------------------------|
|
| Gtrs I, II
|                          |--------3---------|
|  H                       Q       Q          Q
|--------------------------0----------------------------|
|----------------------------------0--------------------|
|---------------------------------------------0---------|
|--7----------------------------------------------------|
|-------------------------------------------------------|
|--5----------------------------------------------------|


  Fadd9                 D5/A                   E5   F5   E5
   ~~~~~~~~~~~                                                          ~~
                          |--3--|  |------3-------|       |--3--|
   H      +Q    +Q        Q  Q  Q  S   S  E  Q    Q       Q  q  Q   a   H
|---------------------|-----------17h=18p17------------|---------------------|
|---------------------|-/15-17-18-----------18---17----|-15------------------|
|---------------------|--------------------------------|----17-14-(14)s16----|
|---------------------|--------------------------------|---------------------|
|-14-----(14)--(14)\--|--------------------------------|---------------------|
|---------------------|--------------------------------|---------------------|
|
|  W                      H       +Q           E     E    W
|---------------------|--------------------------------|---------------------|
|---------------------|--------------------------------|---------------------|
|-(0)-----------------|--------------------------------|---------------------|
|--7------------------|---7-------(7)----------9s===10-|--9------------------|
|--8------------------|---5-------(5)----------7s====8-|--7------------------|
|---------------------|---5-------(5)------------------|---------------------|


  N.C.(Emadd11/A)                                    Fadd9
   PM----------------------------------------------------------|                     ~~~
   S S  S  S  S S  S  S  S  S  S    S  S S    S  S    S   S  S  S  S  S  S  S  S  S  Q.
|--------------------------------------------------|--------------13-12-10----------------|
|-----------------------13-12-10-------------------|-13--12-10-------------13-12-10-12----|
|------------10-9------------------13-10-9---------|-----------13-------------------------|
|-10-9------------12-10----------------------12-10-|--------------------------------------|
|------12-11---------------------------------------|--------------------------------------|
|--------------------------------------------------|--------------------------------------|
|
|                        |--------3--------|
|  H                     Q       Q         Q          W
|------------------------0-----------------0-------|--------------------------------------|
|--------------------------------0-----------------|--------------------------------------|
|--------------------------------------------------|-(0)----------------------------------|
|--7-----------------------------------------------|--7-----------------------------------|
|--------------------------------------------------|--8-----------------------------------|
|--5-----------------------------------------------|--------------------------------------|


  D5/A             E5   F5   E5            G5
                                               ~~~~~~~~    ~~
    |--3--|  |---3----|       |--3---|
    Q  Q  Q  Q   Q    Q       Q   Q  Q         Q   +E   S  S
|--------------------------|-----------------------------------|
|-----------15--17---18----|-----17-----------------------17---|
|-/14-16-17----------------|-16-----16--------17--(17)-16------|
|--------------------------|-----------------------------------|
|--------------------------|-----------------------------------|
|--------------------------|-----------------------------------|
|
|   H       +Q     E     E    Q.        a   E  H
|--------------------------|-----------------------------------|
|--------------------------|-----------------------------------|
|--------------------------|-----------------------------------|
|---7-------(7)----9s===10-|--9--------(9)s12-12---------------|
|---5-------(5)----7s====8-|--7--------(7)s10-10---------------|
|---5-------(5)------------|-----------------------------------|


  N.C.(Emadd11/A)
   |------6-------|  |------6-------|  |------6-------|  |------6-------|
   S  S  S  S  S  S  S  S  S  S  S  S  S  S  S  S  S  S  S  S  S  S  S  S
|-------------------------------------------------------------------------|
|-18-17p15h17p15----------------------17p15h17p15-------------------------|
|----------------17-16h17p16p14h16h17-------------17-16p14h16p14p13h14p13-|
|-------------------------------------------------------------------------|
|-------------------------------------------------------------------------|
|-------------------------------------------------------------------------|
|
|                                      |-----------3-----------|
|  H                                   Q           Q           Q
|--------------------------------------0----------------------------------|
|--------------------------------------------------0----------------------|
|--------------------------------------------------------------0----------|
|--7----------------------------------------------------------------------|
|-------------------------------------------------------------------------|
|--5----------------------------------------------------------------------|


  Fadd9                                   D5/A                                    E5     
 F5   E5
                      ~~~~~~~~~~~~                                                       
       ~~
   |-----3------|
   Q   Q  S  S  E  E  E  +E   +S   T  T    S  S  S  S  S  S  S  S  T   T  S  S  S  T  T  
 E    W
|--------------------------------------|-----------------------------------------------------|---|
|--------------------------------17-17-|-17-18-15-17-15--------------------------------------|---|
|--------------------------------------|----------------17-16-14-13h=14p13----14-------------|---|
|15--14-12h14p12-----------------------|-----------------------------------15----14h15p14-12-|-14|
|----------------15-14-(14)-(14)-------|-----------------------------------------------------|---|
|--------------------------------------|-----------------------------------------------------|---|
|
|  W                                       H                      +Q               E     
  E    W
|--------------------------------------|-----------------------------------------------------|---|
|--------------------------------------|-----------------------------------------------------|---|
|(0)-----------------------------------|-----------------------------------------------------|---|
|-7------------------------------------|--7----------------------(7)--------------9s======10-|--9|
|-8------------------------------------|--5----------------------(5)--------------7s=======8-|--7|
|--------------------------------------|--5----------------------(5)-------------------------|---|


  N.C.(Emadd11/A)                   Fadd9
  E.  a   E.  E  E.     a  E.   E    E.  a   E.  E  E.   a   E.  E
|---------------------------------|--------------------------------|
|---------------------------------|--------------------------------|
|---------------------------------|--------------------------------|
|-7--(7)s10--10-10----(10)s9----9-|--9--(9)s12--12-12--(12)s10--10-|
|---------------------------------|--------------------------------|
|---------------------------------|--------------------------------|
|
|                |-----3------|
| H              Q  Q         Q      W
|----------------0------------0---|--------------------------------|
|-------------------0-------------|--------------------------------|
|---------------------------------|-(0)----------------------------|
|-7-------------------------------|--7-----------------------------|
|---------------------------------|--8-----------------------------|
|-5-------------------------------|--------------------------------|


                                     D.S. al Coda
  D5/A                    E5F5   E5        G5
                                  ~~~          ~~
   E.   a   E.  E  E.  E.    E    Q.        E  H
|------------------------------|---------------------||
|------------------------------|---------------------||
|------------------------------|---------------------||
|-10--(10)s14--14-14--15----15-|-14--------14-14-----||
|------------------------------|---------------------||
|------------------------------|---------------------||
|
|  H              +Q      E  E    Q.    a   E  H
|------------------------------|---------------------||
|------------------------------|---------------------||
|------------------------------|---------------------||
|--7--------------(7)-----9s10-|--9----(9)s12-12-----||
|--5--------------(5)-----7s=8-|--7----(7)s10-10-----||
|--5--------------(5)----------|---------------------||


 Outro
  Q=210
  &
  A5                         E5
  Gtrs I, II
  W            +W             W            +W
  |             |             |             |
  /             /             /             /

  Gtr III
  H     H       H     H       H     H       H     H
|------------|-------------|-------------|-------------|
|------12----|-13----12----|-------12----|-13----------|
|-9----------|-------------|-12----------|-------12----|
|-------9----|-10-----9----|--------9----|-10----------|
|-7----------|-------------|-10----------|-------10----|
|------------|-------------|-------------|-------------|
  H     H       H     H       H     H       H     H


                              Q=150         H.=H
  F5                          G5    C5      B5    C5      A5
   W            +W             H     H       H     H       W           +W
   |             |             |     |       |     |       |            |
   /             /             /     /       /     /       /            /

   H     H       H     H       H     H       H     H       W           +W
|-------------|-------------|-------------|-------------|-----------|---------*|
|-------12----|-13----12----|-------15----|-12----13----|-10--------|-(10)----*|
|-10----------|-------------|-12----------|-------------|-----------|---------*|
|--------9----|-10-----9----|-------12----|--9----10----|--7--------|--(7)----*|
|--8----------|-------------|-10----------|-------------|-----------|---------*|
|-------------|-------------|-------------|-------------|-----------|---------*|
   H     H       H     H       H     H       H     H       W           +W

Duration Legend
---------------
W - whole; H - half; Q - quarter; E - 8th; S - 16th; T - 32nd; X - 64th; a - acciaccatura
+ - note tied to previous; . - note dotted; .. - note double dotted
Uncapitalized letters represent notes that are staccato (1/2 duration)
Irregular groupings are notated above the duration line
Duration letters will always appear directly above the note/fret number it represents the
duration for.  Duration letters with no fret number below them represent rests.  Multi-
bar rests are notated in the form Wxn, where n is the number of bars to rest for.  Low
melody durations appear below the staff

Tablature Legend
----------------
 h   - hammer-on
 p   - pull-off
 b   - bend
 pb  - pre-bend
 r   - bend release (if no number after the r, then release immediately)
 /\  - slide into or out of (from/to "nowhere")
 s   - legato slide
 S   - shift slide
 - natural harmonic
[n]  - artificial harmonic
n(n) - tapped harmonic
 ~   - vibrato
 tr  - trill
 T   - tap
 TP  - trem. picking
 PM  - palm muting
\n/  - tremolo bar dip; n = amount to dip
 \n  - tremolo bar down
 n/  - tremolo bar up
/n\  - tremolo bar inverted dip
 =   - hold bend; also acts as connecting device for hammers/pulls
 <> - volume swell (louder/softer)
 x   - on rhythm slash represents muted slash
 o   - on rhythm slash represents single note slash

Misc Legend
-----------
 |  - bar
||  - double bar
||o - repeat start
o|| - repeat end
*|  - double bar (ending)
 :  - bar (freetime)
 $  - Segno
 &  - Coda
Tempo markers -  = BPM(8/16=s8/s16), where s8 = swing 8ths, s16 = swing 16ths
Добавлено: 30.07.2013
Другие материалы по этой песне:

Страница создана 10.03.2012
http://primanota.ru/death/1000-eyes-chords.htm
Привет, Гость.
Предлагаем пройти революционный курс по гитаре.
Подарок от PrimaNota.Ru, забирай!