PrimaNota.ru - самый крупный в мире бесплатный архив песенных текстов, аккордов, табулатур и нот


Death In Vegas - Rematerialised - текст песни, бас-таба, видео

Регистрация Запомнить меня
Войти через:  Facebook Google Twitter Vk Yandex Mail.ru

Death In Vegas - Rematerialised - текст песни, бас-таба, видео

Печатать
Просмотров: 134
Уроки эстрадного вокала в Санкт-Петербурге
Авторы музыки: Steve Hellier, Richard Fearless

DEATH IN VEGAS - REMATERIALISED
ALBUM: DEAD ELVIS (1997)
BASSIST: MAT FLINT

INTRO

E ---------------------|
A --4-4-----------2-2--|
D ------/6-6-6/4-------|
G ---------------------|

VERSE

E ----------------------------------------------------|
A --4-4-(4)---------------2-2-(2)---------------------|
D ----------/6-6-6-6-6-4----------/12-12-12--11-11/---|
G ----------------------------------------------------|

JAH WOBBLE IS GOD!!!
Добавлено: 18.05.2012
Другие материалы по этой песне:
  • Аккорды и текст

Страница создана 18.05.2012
http://primanota.ru/death-in-vegas/rematerialised-chords.htm
Привет, Гость.
Предлагаем пройти революционный курс по гитаре.
Подарок от PrimaNota.Ru, забирай!