PrimaNota.ru - самый крупный в мире бесплатный архив песенных текстов, аккордов, табулатур и нот


Death In December - Lying Awake - таба, видео

Регистрация Запомнить меня
Войти через:  Facebook Google Twitter Vk Yandex Mail.ru

Death In December - Lying Awake - таба, видео

Печатать
Просмотров: 135
Tabbed by: Oby
Email: Xtralanked@yahoo.com

Tuning:Standard

Intro: 
Intro by guitarboy1822 

e|------------------------------------------------|
B|------------------------------------------------| 
G|------------------------------------------------|
D|------------------------------------------------|
A|-----3-----3-----3-----3-----3-----3------------|
E|-5-5---7-7---8-8---1-1---3-3---3-3--------------|

Verse:

e|-----------------------------------|
B|-----------------------------------| 
G|-----------------------------------|
D|-7----10---3---5-------------------|
A|-7----10---3---5-------------------|
E|-5----8----1---3-------------------|

Pre-Chorus:

e|-----------------|
B|-----------------| 
G|---------5-------|      
D|-5---3---5-------|   
A|-5---3---3-------|
E|-5---1-----------|

Chorus:

e|-----------------|--------------------|
B|-----------------|--------------------|
G|--------5--------|---5p0----5p0-------|
D|--5--3--5--------|---5--5p0-----5p0---|
A|--5--3--3--------|---3----------------|
E|--3--1-----------|--------------------|


Bridge #1:

e|--------------------------------------------------------------|
B|--------------------------------------------------------------| 
G|--------5p0------------5p0-------------5p0------------5p0-----|
D|-----3-----5p0------3-----5p0-------3-----5p0------3-----5p0--|
A|------3--------------3---------------3--------------3---------|
E|--5-5-----------3-3-------------1-1------------3-3------------|



Bridge #2:

e|-----------------|
B|-----------------|
G|--9--4--5--7-----|
D|--x--x--x--x-----|
A|--7--2--3--5-----|
E|-----------------|


Intro
Verse
Pre-Chorus
Chorus
Bridge #1
Verse
Pre-Chorus
Chorus
Bridge #2
Pre-Chorus
Chorus
Добавлено: 27.04.2012
Другие материалы по этой песне:

Страница создана 27.04.2012
http://primanota.ru/death-in-december/lying-awake-chords.htm
Привет, Гость.
Предлагаем пройти революционный курс по гитаре.
Подарок от PrimaNota.Ru, забирай!