PrimaNota.ru - самый крупный в мире бесплатный архив песенных текстов, аккордов, табулатур и нот


Death In December - Forever - таба, видео

Регистрация Запомнить меня
Войти через:  Facebook Google Twitter Vk Yandex Mail.ru

Death In December - Forever - таба, видео

Печатать
Просмотров: 101
Death In December
www.myspace.com/deathindecember
http://www.deathindecember.com/

e----------------------|
B--------------------4-|
G--------4-4-4-4-4-4---|
D--6-6-6---------------|
A--6-6-6---------------|
E--6-6-6---------------| X2

e----------------------|
B--------------------4-|
G--------4-4-4-4-4-4---|
D--2-2-2---------------|
A--2-2-2---------------|
E--2-2-2---------------|

e----------------------|
B----------------------|
G----------------------|
D--2-2-2-2-2-4-4-4-4-4-|
A--2-2-2-2-2-4-4-4-4-4-|
E--2-2-2-2-2-4-4-4-4-4-|

I know it's not perfect but it's my first tab so sorry!
but i will try to complete it!
Добавлено: 26.06.2012
Другие материалы по этой песне:
  • Аккорды и текст

Страница создана 26.06.2012
http://primanota.ru/death-in-december/forever-chords.htm
Привет, Гость.
Предлагаем пройти революционный курс по гитаре.
Подарок от PrimaNota.Ru, забирай!