PrimaNota.ru - самый крупный в мире бесплатный архив песенных текстов, аккордов, табулатур и нот


Death In December - Chemistry And Heartach - таба, видео

Регистрация Запомнить меня
Войти через:  Facebook Google Twitter Vk Yandex Mail.ru

Death In December - Chemistry And Heartach - таба, видео

Печатать
Просмотров: 98
Band: Death In December
Song: Chemistry And Heartache
Album: A Beautiful Tragedy
Tabbed By: Jean-Daniel Roy

I'm sure it's like 99.9% Good the 0.01 % Bad is if you fin an error sooo for this tabs
need to be tune in Down 1/2 step. D#G#C#F#A#D# For th eone who dont know how to tune in
1/2 step well download guitar pro on the guitar pro web site and you will be able to, 
i've contact the ex-guitarist for death in december to know the tuning and he officialy
some song are in drop C and other Down 1/2 Step, sooo this is it here we go:) HAVE FUN 
IT!


FOR THE BEAT JUST LISTEN TO THE SONG PLEASE,

Intro
D#------------------------|
A#------------------------|
F#--10----10-----10-9--10-|
C#--8-----10-----0--0--0--|
G#--8-----10-----0--0--0--|
D#--8-----10-----0--0--0--|X2

Verse
D#------------------------|
A#------------------------|
F#--10----10-----10-9--10-|
C#--8-----10-----0--0--0--|
G#--8-----10-----0--0--0--|
D#--8-----10-----0--0--0--|  X4


Chorus
D#---------------------------------------------|
A#---------------------------------------------|
F#-----------------10-10-10-10------9/10-10-10-|
C#--8-----10-----0---------------0-------------|
G#--8-----10-----0---------------0-------------|
D#--8-----10-----0---------------0-------------|
                P.M             P.M

D#------------------------|
A#------------------------|
F#--10----10-----10-9--10-|
C#--8-----10-----0--0--0--|
G#--8-----10-----0--0--0--|
D#--8-----10-----0--0--0--|

D#---------------------------------------------|
A#---------------------------------------------|
F#-----------------10-10-10-10------9/10-10-10-|
C#--8-----10-----0---------------0-------------|
G#--8-----10-----0---------------0-------------|
D#--8-----10-----0---------------0-------------|
                P.M             P.M

D#-----------|
A#-----------|
A#--10----10-|
C#--8-----10-| Let it ring,
G#--8-----10-|
D#--8-----10-|

Verse

D#------------------------|
A#------------------------|
F#--10----10-----10-9--10-|
C#--8-----10-----0--0--0--|
G#--8-----10-----0--0--0--|
D#--8-----10-----0--0--0--|

Chorus
D#---------------------------------------------|
A#---------------------------------------------|
F#-----------------10-10-10-10------9/10-10-10-|
C#--8-----10-----0---------------0-------------|
G#--8-----10-----0---------------0-------------|
D#--8-----10-----0---------------0-------------|
                P.M             P.M

D#------------------------|
A#------------------------|
F#--10----10-----10-9--10-|
C#--8-----10-----0--0--0--|
G#--8-----10-----0--0--0--|
D#--8-----10-----0--0--0--|

D#---------------------------------------------|
A#---------------------------------------------|
F#-----------------10-10-10-10------9/10-10-10-|
C#--8-----10-----0---------------0-------------|
G#--8-----10-----0---------------0-------------|
D#--8-----10-----0---------------0-------------|
                P.M             P.M

D#-----------|
A#-----------|
F#--10----10-|
C#--8-----10-| Let it ring,
G#--8-----10-|
D#--8-----10-|

Break-Down
D#------------------------------|
A#------------------------------|
F#------------------------------|
C#--0-0-0-0-0--0-0--0-0-0-0-0-0-|
G#--0-0-0-0-0--0-0--0-0-0-0-0-0-|
D#--0-0-0-0-0--0-0--0-0-0-0-0-0-|
  PM----------------------------| X8

D#-------------------------------------------------------------|
A#-------------------------------------------------------------|
F#-------------------------------------------------------------|
C#------10-10-9-9------------10-10-9-9----------10-10-9-9------|
G#---------------10-10----------------10-10--------------10-10-|
D#--8-8----------------10-10----------------0-0----------------|

D#---------------------|
A#---------------------|
F#---------------------|
C#------10-10-9-9------|
G#---------------10-10-|
D#--0-0----------------| X2

D#-----------------|
A#-----------------|
F#-----------------|
C#--8-----10-----0-|
G#--8-----10-----0-|
D#--8-----10-----0-|  X2

Chorus
D#---------------------------------------------|
A#---------------------------------------------|
F#--10--- 10-------10-10-10-10------9/10-10-10-|
C#--8-----10-----0---------------0-------------| (Here The Chorus as a
G#--8-----10-----0---------------0-------------|  variation, The begining is
D#--8-----10-----0---------------0-------------|  played Clean,)
                P.M             P.M

D#------------------------|
A#------------------------|
F#--10----10-----10-9--10-|
C#--8-----10-----0--0--0--|
G#--8-----10-----0--0--0--|
D#--8-----10-----0--0--0--|

D#---------------------------------------------|
A#---------------------------------------------|
F#-----------------10-10-10-10------9/10-10-10-|
C#--8-----10-----0---------------0-------------|
G#--8-----10-----0---------------0-------------|
D#--8-----10-----0---------------0-------------|
                P.M             P.M

D#--------------|
A#--------------|
F#--10----10----|
C#--8-----10--0-|
G#--8-----10--0-|
D#--8-----10--0-| X2

Добавлено: 02.07.2012
Другие материалы по этой песне:
  • Аккорды и текст

Страница создана 02.07.2012
http://primanota.ru/death-in-december/chemistry-and-heartach-chords.htm
Привет, Гость.
Предлагаем пройти революционный курс по гитаре.
Подарок от PrimaNota.Ru, забирай!