PrimaNota.ru - самый крупный в мире бесплатный архив песенных текстов, аккордов, табулатур и нот


Death Grips - Why A Bitch Gotta Lie - таба, видео

Регистрация Запомнить меня
Войти через:  Facebook Google Twitter Vk Yandex Mail.ru

Death Grips - Why A Bitch Gotta Lie - таба, видео

Печатать
Просмотров: 71
Авторы музыки: Andy Morin, Stefan Burnett, Zach Hill
Авторы текста: Stefan Burnett
-------------------------------------------------------------------------------
                    WHY A BITCH GOTTA LIE - Death Grips
-------------------------------------------------------------------------------
Tabbed by: Vince Noir
E-mail: stupidbobbybob@gmail.com

Tuning: standard

Not a difficult song to play, but thought I'd share because it's super-fun :)

Riff 1:
e|---------------------------------------------------------------------------|
B|---------------------------------------------------------------------------|
G|-5--3-6-5------------------------------------------------------------------|
D|-5--3-6-5------------------------------------------------------------------|
A|-3--1-4-3------------------------------------------------------------------|
E|---------------------------------------------------------------------------|

Riff 2:
e|---------------------------------------------------------------------------|
B|----5--5------------7--7---------------------------------------------------|
G|-5--b7-b7---x4---5--b9-b9---x4---------------------------------------------|
D|-5---------------5---------------------------------------------------------|
A|-3---------------3---------------------------------------------------------|
E|---------------------------------------------------------------------------|

************************************

| /   slide up
| \   slide down
| h   hammer-on
| p   pull-off
| ~   vibrato
| +   harmonic
| x   Mute note
| b   Bend
| pb  Pre-bend
| br  Bend release
| pbr Pre-bend release
| brb Bend release bend

************************************
Добавлено: 27.10.2015
Другие материалы по этой песне:
  • Аккорды и текст

Страница создана 27.10.2015
http://primanota.ru/death-grips/why-a-bitch-gotta-lie-chords.htm
Привет, Гость.
Предлагаем пройти революционный курс по гитаре.
Подарок от PrimaNota.Ru, забирай!