PrimaNota.ru - самый крупный в мире бесплатный архив песенных текстов, аккордов, табулатур и нот


Death From Above 1979 - Youre Lovely But Youve Got Problems - бас-таба, видео

Регистрация Запомнить меня
Войти через:  Facebook Google Twitter Vk Yandex Mail.ru

Death From Above 1979 - Youre Lovely But Youve Got Problems - бас-таба, видео

Печатать
Просмотров: 94
DEATH FROM ABOVE 1979 - YOU'RE LOVELY (BUT YOU'VE GOT PROBLEMS)
                    (Tabbed by w7w7w7)


Tuning : D-Standard!


Verse                                       --
F|-------------------------------------|      |
C|-------------------------------------|      |
G|-10-7-7-7-7-7-7-XXX------------------| x2   |
D|-------------------------------------|      |
                                              > x4
F|-------------------12----------------|      |
C|----------7---10---------------------|      |
G|-10-7-7-7---7----7----7-7-7-7-7-7-XXX|      |
D|-------------------------------------|      |
                                            --


Chorus
F|-------------------------------------|
C|---------------555-5/2-2-2-2-2-2-2---|
G|-5-555555-4-444----------------------|
D|-------------------------------------|

F|-------------------------------------|
C|---------------888-8/2-2-2-2-2-2-2---|
G|-5-555555-4-444----------------------|
D|-------------------------------------|


Verse x2
Chorus x2


Bridge                                      --
F|-----4-------7-------6-------5-------|      |
C|-------------------------------------|      |
G|-7-------7-------7-------7-----------| x2   |
D|---0-------0-------0-------0---------|      |
                                              > x2
F|-7-------7-------7-------7-----------|      |
C|---007-----0010----009-----008-------|      |
G|-------------------------------------| x2   |
D|-------------------------------------|      |
                                            --


Verse
F|-------------------------------------|
C|-------------------------------------|
G|-10-7-7-7-7-7-7-XXX------------------| x7
D|-------------------------------------|

F|-------------------------------------|
C|-------------------------------------|
G|-10-7-7-7-7-7-7-555------------------|
D|-------------------------------------|

F|-------------------------------------|
C|-------------------------------------|
G|-10-7-7-7-7-7-7-XXX------------------| x4
D|-------------------------------------|
Добавлено: 09.10.2013
Другие материалы по этой песне:
  • Аккорды и текст

Страница создана 09.10.2013
http://primanota.ru/death-from-above-1979/youre-lovely-but-youve-got-problems-chords.htm
Привет, Гость.
Предлагаем пройти революционный курс по гитаре.
Подарок от PrimaNota.Ru, забирай!