PrimaNota.ru - самый крупный в мире бесплатный архив песенных текстов, аккордов, табулатур и нот


Death From Above 1979 - You'Re A Woman, I'M A Machine - текст песни, бас-таба, видео

Регистрация Запомнить меня
Войти через:  Facebook Google Twitter Vk Yandex Mail.ru

Death From Above 1979 - You'Re A Woman, I'M A Machine - текст песни, бас-таба, видео

Печатать
Просмотров: 245
i DIDNT TAB THIS I FOUNT IT ONLINE AND THOUGHT 
I'D SHARE



Turn it Out
Artist: Death From Above 1979
Album: You're a Woman I'm A Machine
Tuning: Standard EADG
Intro-(I dont know how to make the wierd noise.  Improvise!)
-----------------------------------------------|
-----------------------------------------------|
---333----------333--------333--------333------|  x2
-----------------------------------------------|


-------888------777------555-------555---------|
-----------------------------------------------|
--333-------333------333------333--------------|  x4
-----------------------------------------------|
Verse
-------8-10-8-----787--------575-----575-------|
-----------------------------------------------|
--333---------333-------333-----333------------|  x4
-----------------------------------------------|
"Be there for you someday, soon......"
Bridge 1
-----8h10--8h10--8h10--8h10--|
-----------------------------|
--88-----88----88------88----| x2
-----------------------------|


-------888------777------555-------555---------|
-----------------------------------------------|
--333-------333------333------333--------------|  x2
-----------------------------------------------|

Back To Verse
Then To Bridge 2

-----8h10--8h10--8h10--8h10--------------------------|
-----------------------------     ---------\---------|
--88-----88----88----88------ x2---------------------|            \
-----------------------------------------------------|  
              \
 Play Twice

---3h5--3h5--3h5--3h5--------------------------------|                /
-----------------------------------------------------|               /
-33--33--33--33--------------| x2  
-----------------------------------------------------|


--------------------------------------|
-----------------------------66666666-|
-6666666666666666-111111111-----------|
--------------------------------------|



"Oooohh, we'll take the time, take the time to turn it out..."
Outro-  (Pretty ,much the same old riffs)

-------888------777------555-------555---------|
-----------------------------------------------|
--333-------333------333------333--------------|  x2
-----------------------------------------------|


-------8-10-8-----787--------575-----575-------|
-----------------------------------------------|
--333---------333-------333-----333------------|  x4
-----------------------------------------------|


-----------------------------------------------|
-----------------------------------------------|
---333----------333--------333--------333------|  x2
-----------------------------------------------|


--------------------------------------------------|
--------------------------------------------------|
---3\---------------------------------------------|
--------------------------------------------------|
Finished!

ROMANTIC RIGHTS

PLAY IN D-STANDARD
D-G-C-F TUNING


For the scratches, the SYMBOL "~\" is used.

Actual version he is using a distortion pedal an is really scratchy 
it sounds real cool. This is such a good song have fun playing it.



INTRO x1
|-----------------------------------------------------|
|-----------------------------~\~\~\~\~\---~\~\~\~\~\-|
|-0-~\~\~\~\~\-0-~\~\~\~\~\-0------------0------------|
|-----------------------------------------------------|

|---~\~\~\~\~\---~\~\~\~\~\---~\~\~\~\~\---~\~\~\~\~\-|
|-----------------------------------------------------|
|-0------------0------------0------------0------------|
|-----------------------------------------------------|

|--------------------------------------------------~\-|
|---~\~\~\~\~\---~\~\~\~\~\---------------------------|
|-0------------0------------0-~\~\~\~\~\-0-~\~\~\~\---|
|-----------------------------------------------------|

    
  PRE-VERSE x1
|----|------------------------------------------------|
|----|---------5-3-----------------5-3----------------|
|----|-------------5-0-2-3-------------5-0-2-3--------|
|-\0-|-5-5-3-5-------------5-5-3-5--------------------|

     |---------------------------------------5--------|
     |---------5-3-----------------5-3----------------|
     |-------------5-0-2-3-------------5-0-2----------|
     |-5-5-3-5-------------5-5-3-5--------------------|

VERSE x2
|------------------------------------------------|
|---------5-3-----------------5-3----------------|
|-------------5-0-2-3-------------5-0-2-3--------|
|-5-5-3-5-------------5-5-3-5--------------------|

|---------------------------------------5--------|
|---------5-3-----------------5-3----------------|
|-------------5-0-2-3-------------5-0-2----------|
|-5-5-3-5-------------5-5-3-5--------------------|


BRIDGE x2
|----------------------------8-7-8-7-|   Not to sure if this is right notes for "8-7".
|-----------8-7-8-7------------------|
|-0-0-0-0-0------- 0-0-0-0-0---------|
|------------------------------------   
....don't need you, i want you.....

VERSE x1
|------------------------------------------------|
|---------5-3-----------------5-3----------------|
|-------------5-0-2-3-------------5-0-2-3--------|
|-5-5-3-5-------------5-5-3-5--------------------|

|---------------------------------------5--------|
|---------5-3-----------------5-3----------------|
|-------------5-0-2-3-------------5-0-2----------|
|-5-5-3-5-------------5-5-3-5--------------------|

CHORUS x1
|------------------------------------------------|
|---------5-3-----------------5-3----------------|
|-------------5-0-2-3-------------5-0-2-3--------|
|-5-5-3-5-------------5-5-3-5--------------------|

|---------------------------------------5--------|
|---------5-3-----------------5-3----------------|
|-------------5-0-2-3-------------5-0-2----------|
|-5-5-3-5-------------5-5-3-5--------------------|

 x2
|------------------------------------------------|
|---------5-3-----------------5-3----------------|
|-------------5-0-2-3-------------5-0-2-3--------|
|-5-5-3-5-------------5-5-3-5--------------------|

|---------------------------------------5--------|
|---------5-3-----------------5-3----------------|
|-------------5-0-2-3-------------5-0-2----------|
|-5-5-3-5-------------5-5-3-5--------------------|

 X2
|------------------------------------------------|
|---------5-3-----------------5-3----------------|
|-------------5-0-2-3-------------5-0-2-3--------|
|-5-5-3-5-------------5-5-3-5--------------------|

|---------------------------------------5--------|
|---------5-3-----------------5-3----------------|
|-------------5-0-2-3-------------5-0-2----------|
|-5-5-3-5-------------5-5-3-5--------------------|

AGAIN DIST. X1
|------------------------------------------------|
|---------5-3-----------------5-3----------------|
|-------------5-0-2-3-------------5-0-2-3--------|
|-5-5-3-5-------------5-5-3-5--------------------|

|---------------------------------------5--------|
|---------5-3-----------------5-3----------------|
|-------------5-0-2-3-------------5-0-2----------|
|-5-5-3-5-------------5-5-3-5--------------------|

BRIDGE
|---------------------------8-7-8-7-| 
|-----------8-7-8-7-----------------|   
|-0-0-0-0-0----------0-0-0-0-0------| 
|-----------------------------------|
....don't need you, i want you.....

PRE-OUTRO x2
|--------------------------12--------------------------12-|
|------12-10-12------12-10---------12-10-12------12-10----|
|-0-12----------0-12----------0-12----------0-12----------|
|---------------------------------------------------------|

OUTRO x8                    END
|--------------------------|-----|
|------12-12-12-12-12-0-10-|-----|
|-0-12---------------------|-0-0-|
|--------------------------|-----|











GOING STEADY
I don
Добавлено: 08.02.2014
Другие материалы по этой песне:

Страница создана 15.04.2012
http://primanota.ru/death-from-above-1979/youre-a-woman-im-a-machine-chords.htm
Привет, Гость.
Предлагаем пройти революционный курс по гитаре.
Подарок от PrimaNota.Ru, забирай!