PrimaNota.ru - самый крупный в мире бесплатный архив песенных текстов, аккордов, табулатур и нот


Death From Above 1979 - We Dont Sleep At Night - бас-таба, видео

Регистрация Запомнить меня
Войти через:  Facebook Google Twitter Vk Yandex Mail.ru

Death From Above 1979 - We Dont Sleep At Night - бас-таба, видео

Печатать
Просмотров: 197
Уроки эстрадного вокала в Санкт-Петербурге
Good song, pretty simple

Riff 1
G--------------------------------|
D--------------------------------|
A-6--------4--------6------------|
E---6-6666---4-4444---6-66666666-|

Riff 2
A-------------------------------|
D----------6--------------------|
A-6-8-8888---6-6666-7-----------|
E--------------------6-66666666-|

Riff 3
A----------------------|
D----------------------|
A-----------6----------|
E--33333333---66666666-|

Order:
Riff 1 x3
Riff 2 x2
Riff 1 x2
Riff 2 x4
Riff 3 x2
Riff 1 x2
Riff 2 x4
Добавлено: 24.12.2013
Другие материалы по этой песне:
  • Аккорды и текст

Страница создана 24.12.2013
http://primanota.ru/death-from-above-1979/we-dont-sleep-at-night-chords.htm
Привет, Гость.
Предлагаем пройти революционный курс по гитаре.
Подарок от PrimaNota.Ru, забирай!