PrimaNota.ru - самый крупный в мире бесплатный архив песенных текстов, аккордов, табулатур и нот


Death From Above 1979 - Trainwreck 1979 - бас-таба, видео

Регистрация Запомнить меня
Войти через:  Facebook Google Twitter Vk Yandex Mail.ru

Death From Above 1979 - Trainwreck 1979 - бас-таба, видео

Печатать
Просмотров: 214
Artist: Death From Above 1979
Song: Trainwreck 1979
Tabbed by: Dave Sheehan

*** This song is in D standard tuning ***
*** Tabbed in E standard tuning below ***

Please rate :)


VERSE

F|-----------------|-----------------|-----------------|-----------------|
C|-7-7-7-7-7-7-5-5-|-----------------|-----------------|-----------------|
G|-----------------|-8-8-8-8-8-8-7-7-|-5-5-5-5-5-5-5-5-|-5-5-5-5-5-5-5-5-|
D|-----------------|-----------------|-----------------|-----------------|


CHORUS

F|---5/7h9---------|-----7------|
C|-7-------7--7--5-|-3/5--------|
G|-----------------|-------5--5-|
D|-----------------|------------| x4


BRIDGE (whole part played twice)

F|-----------------|-----------------|-----------------|-----------------|
C|-----------------|-----------------|-----------------|-----------------|
G|-8-8-8-8-8-8-8-0-|-0-0-0-0-0-0-3-3-|-5-5-5-5-5-5-5-5-|-5-5-5-5-5-5-7-7-|
D|-----------------|-----------------|-----------------|-----------------|

F|-------------------|-------------------|-----------------|-----------------|
C|-------------10-10-|-------------------|-----------------|-----------------|
G|-8-8-8-8-8-8-------|-------------10-10-|-5-5-5-5-5-5-5-5-|-5-5-5-5-5-5-5-5-|
D|-------------------|-8-8-8-8-8-8-------|-----------------|-----------------|


| /  slide up
| \  slide down
| h  hammer-on
| p  pull-off
| ~  vibrato
| +  harmonic
| x  Mute note


-------------------------------------------------------------------------------
                           E TUNING
-------------------------------------------------------------------------------


VERSE

G|-----------------|-----------------|-----------------|-----------------|
D|-5-5-5-5-5-5-3-3-|-----------------|-----------------|-----------------|
A|-----------------|-6-6-6-6-6-6-5-5-|-3-3-3-3-3-3-3-3-|-3-3-3-3-3-3-3-3-|
E|-----------------|-----------------|-----------------|-----------------|

CHORUS

G|---3/5h7---------|-----5------|
D|-5-------5--5--3-|-1/3--------|
A|-----------------|-------3--3-|
E|-----------------|------------| x4


BRIDGE (whole part played twice)

G|-----------------|-----------------|-----------------|-----------------|
D|-----------------|-----------------|-----------------|-----------------|
A|-6-6-6-6-6-6-6---|-------------1-1-|-3-3-3-3-3-3-3-3-|-3-3-3-3-3-3-5-5-|
E|---------------3-|-3-3-3-3-3-3-----|-----------------|-----------------|

G|-----------------|-----------------|-----------------|-----------------|
D|-------------8-8-|-----------------|-----------------|-----------------|
A|-6-6-6-6-6-6-----|-------------8-8-|-3-3-3-3-3-3-3-3-|-3-3-3-3-3-3-3-3-|
E|-----------------|-6-6-6-6-6-6-----|-----------------|-----------------|


| /  slide up
| \  slide down
| h  hammer-on
| p  pull-off
| ~  vibrato
| +  harmonic
| x  Mute note
Добавлено: 24.07.2015
Другие материалы по этой песне:
  • Аккорды и текст

Страница создана 24.07.2015
http://primanota.ru/death-from-above-1979/trainwreck-1979-chords.htm
Привет, Гость.
Предлагаем пройти революционный курс по гитаре.
Подарок от PrimaNota.Ru, забирай!